PrimaNota.ru - самый крупный в мире бесплатный архив песенных текстов, аккордов, табулатур и нот


Riot - Blood Of The English - текст песни, таба, видео

Регистрация Запомнить меня
Войти через:  Facebook Google Twitter Vk Yandex Mail.ru

Riot - Blood Of The English - текст песни, таба, видео

Печатать
Просмотров: 59
Новый альбом группы 'Черный Кузнец' по культовому сериалу 'Сверхъестественное'!
[Intro]
e|---------------------------------|
B|---------------5--5/7--5--3------|
G|-------2-----2-4--4/6--4--2------|
D|-2-4---2-4---2-------------------|
A|-2-4-----4-----------------------|
E|---------------------------------|

e|----------------------------|
B|----------------------------|
G|-------2----------2---------|
D|-2-4---2-4---2-4--2--2------|
A|-2-4-----4---2-2-----2------|
E|----------------------------|


************************************

| /  Slide up

************************************
Добавлено: 08.03.2018
Другие материалы по этой песне:
  • Аккорды и текст

Страница создана 09.09.2013
http://primanota.ru/riot/blood-of-the-english-chords.htm
Привет, Гость.
Предлагаем пройти революционный курс по гитаре.
Подарок от PrimaNota.Ru, забирай!