PrimaNota.ru - самый крупный в мире бесплатный архив песенных текстов, аккордов, табулатур и нот


Rio - Todo Estaba Bien - аккорды и текст, таба, видео

Регистрация Запомнить меня
Войти через:  Facebook Google Twitter Vk Yandex Mail.ru

Rio - Todo Estaba Bien - аккорды и текст, таба, видео

Печатать
Просмотров: 161
Todo Estaba Bien
Rio
Hector David(davishos@

Todo estaba bien, pero llegaste tu...

Aca esta esta hermosa cancion del Grupo Rio dedicada a
todas las hermosas chicas que llegaron a nuestras vidas
de una manera inesperada


INTRO:C-Em-Gm-C-F-G-F-G-C

e|-------------------------------------------------------------
B|-------------------------------------------------------------
G|-------------------------------------------------------------
D|-3/5-5-3-3-2--3/5--5-5-5-5-5-5-7-5-3-2-2-2-3----0-0-0-2-3/5--
A|----------------------------------------------3--------------
E|-------------------------------------------------------------

e|---------------------------------------
B|---------------------------------------
G|---------------------------------------
D|-5-5-5-5/7-9-9-10-9-7-5-5-3-2-3-5-2----
A|------------------------------------3--
E|---------------------------------------

 C                          Em
 Comenzamos este juego tu y yo
  Gm                 C          F
 yo por que no tenia nada que perder
      G
 cuando yo te encontre
         F     G             C    Riff1
 tu ya tenias otro a quien amar                     Riff1
                                            e----------------------
                                            B----------------------
                                            G------22------44------
                                            D--2/3-----3/5---------
                                            A----------------------
 C                                   Em     E----------------------
 cada instante te haces mas dueña de mi
  Gm                 C           F
 cada locura que tu hagas es por mi
  G                     F             G         A    A7
 y todo sigue igual y poco a poco nos dejamos llevar


Dm             A#            Am
 yo se que esperas algo mas de mi
    Gm          Dm
 yo nunca lo dire
 A#          G
 quiero olvidarte

C                               Em
 Tu no has hecho nada para yo cambiar
  Gm                C        F
 quizas pienses no volverme a encontrar
  G                         F          G     A      A7
 tu sabes como soy y te imaginas que nunca cambiare


Dm                  A#        Am Gm          Dm
 Tu siempre esperando mas de mi niguno cedera

 A#          G    A#        C     F
 Debo olvidarte voy a marcharme


    F        A#   G             F   Dm      A#           C
 todo estaba bien pero llegaste tu  y empece a soñar y a sentir

    F        A#   G             F   Dm       A#          G
 todo estaba bien pero llegaste tu  y empece a pensar en ti

 Solo Guitarra:C-Em-Gm-C-F-G-F-G-C

e|-----------------------------------------------------------------------
B|-----------------------------------------------------------------------
G|-----------------------------------------------------------------------
D|-3/5-5-5-5-5-5-5-5-3-3-2-3/5-5-5-5-5-5-5-7-5-3-2-2-2-3--------------5--
A|--------------------------------------------------------3--3/5-5-5-7---
E|-----------------------------------------------------------------------

e|-------------------------------------------------------------
B|-------------------------------------------------------------
G|------------------------------------------------22-----44----
D|----------5--5-7-5-3-2--2-3-2---2-3-2--2----2/3-----3/5------
A|-5-5-5-7---------------------------------3-------------------
E|-------------------------------------------------------------

  C                                 Em
 cada instante te haces mas dueña de mi
  Gm                 C           F
 cada locura que tu hagas es por mi
  G                     F             G         A    A7
 y todo sigue igual y poco a poco nos dejamos llevar


Dm             A#            Am
 yo se que esperas algo mas de mi
    Gm          Dm
 yo nunca lo dire
 A#          G     A#        C     F
 Debo olvidarte voy a marcharme


    F        A#   G             F   Dm      A#           C     F
 Todo estaba bien pero llegaste tu  y empece a soñar y a sentir [3x]


    F        A#   G             F  Dm       A#      C    F
 todo estaba bien pero llegaste tu    y empece a soñar

    F        A#   G             F   Dm      A#           C     F
 todo estaba bien pero llegaste tu  y empece a soñar y a sentir

    F        A#   G             F   Dm    A#      C
 todo estaba bien pero llegaste tu  y empece a soñar

    F        A#   G             F   Dm      A#           C     F
 todo estaba bien pero llegaste tu  y empece a soñar y a sentir.


Cualquier duda o queja contactarme.
Добавлено: 21.05.2015
Другие материалы по этой песне:
  • Аккорды и текст

Страница создана 21.05.2015
http://primanota.ru/rio/todo-estaba-bien-chords.htm
Привет, Гость.
Предлагаем пройти революционный курс по гитаре.
Подарок от PrimaNota.Ru, забирай!