PrimaNota.ru - самый крупный в мире бесплатный архив песенных текстов, аккордов, табулатур и нот


Ringworm - No one dies alone - таба, видео

Регистрация Запомнить меня
Войти через:  Facebook Google Twitter Vk Yandex Mail.ru

Ringworm - No one dies alone - таба, видео

Печатать
Просмотров: 60


                    No One Dies Alone
                           by
                        RINGWORM
                   TUNING: Dropped D


INTRO RIFF
|-----------------------------------------------|
|-----------------------------------------------|
|-----------------------------------------------|
|-----------------------------------------------|
|-10h12--888--7h11--888--7-88-10-13-12~---------|
|-10h12--888--7h11--888--7-88-10-13-12~---------|
                          pm____|


VERSE RIFF
|-----------------------------------------------
|-----------------------------------------------
|-----------------------------------------------
|-----------------------------------------------
|00000000-10--8--10--13--12--10--12-0----0000000
|00000000-10--8--10--13--12--10--12-0----0000000
PM_______|                              PM______|


VERSE RIFF CONTINUED
 ------------------------------|
 ------------------------------|
 ------------------------------|
 ------------------------------|
 -10--8--10--7--8--10--12-0----|
 -10--8--10--7--8--10--12-0----|REPEAT 8x



CHORUS RIFF
|------------------------------------------------
|------------------------------------------------
|------------------------------------------------
|------------------------------------------------
|-0-0--0--8-8--8--0-0--0--13-13--13-12-----------
|-0-0--0--8-8--8--0-0--0--13-13--13-12--000000000
                                       PM________


 CHORUS RIFF CONTINUED
 ---------------------|
 ---------------------|
 ---------------------|
 ---------------------|
 ---------------------|
 00000000000000000----|
 _________________|




SONG ORDER: INTRO RIFFx1
            VERSE RIFFx10
           CHORUS RIFFx4
            VERSE RIFFx8
           CHORUS RIFFx4
            INTRO RIFFx4

You will notice that Matt Sorg plays a variation of the intro riff at the end of the song.  You will automatically learn how to play that variation if you just listen to the song enjoy 
            

Добавлено: 15.09.2013
Другие материалы по этой песне:
  • Аккорды и текст

Страница создана 15.09.2013
http://primanota.ru/ringworm/no-one-dies-alone-chords.htm
Привет, Гость.
Предлагаем пройти революционный курс по гитаре.
Подарок от PrimaNota.Ru, забирай!