PrimaNota.ru - самый крупный в мире бесплатный архив песенных текстов, аккордов, табулатур и нот


Rilo Kiley - Three Hopeful Thoughts - аккорды и текст, видео

Регистрация Запомнить меня
Войти через:  Facebook Google Twitter Vk Yandex Mail.ru

Rilo Kiley - Three Hopeful Thoughts - аккорды и текст, видео

Печатать
Просмотров: 68
Авторы музыки: Jenny Lewis, Blake Sennett

Three Hopeful Thoughts
Rilo Kiley
THREE HOPEFUL THOUGHTS
by rilo kiley
from their album 'the execution of all things'

tabbed by drew (iamdrew@gmail.com)


(capo 4)

         E A D G B e
         -----------
G        3 2 0 0 2 2
Am       x 0 2 2 1 0
C        x 3 2 0 1 0
D        x x 0 2 3 2
A        x 0 2 2 2 0
G/F#     2 x 0 2 3 3


intro:   G  /  Am  /  D  /  /  /  / 
-----

verse:
-----

G                         Am        C
    all this talk of your sweet girlfriend
D
    is starting to pay off
G                           Am       C
    and the charms that you got from travel
D
    are starting to wear off


chorus:
-------

      C
and i hope that you
Am
smile tonight
G                         Em
watching the last of your friends arrive
       Am                    D
you'll smile and shake their hands


verse:
------

G                           Am          C
    and the hero that you'd hoped you'd be
D         
    never seemed to show up
G                Am        C 
    and if i can keep from talking
D
    there won't be time to give up


chorus:
-------

      C
and i hope that i
Am
drive tonight
G                    Em
into the last of the great sunrises
     Am                D
i'll smile and wave my hand
    G
goodbye


bridge:
-------

   Em (p.m.)
if things don't work out
Am (p.m.)         Bm (p.m)
quite the way you planned
            C (p.m)
it's almost half past two and
D (p.m)       Em (p.m)   
i've begun to hate the way you
A        Am
smile so smile


solo:    G  /  Am  /  D  /  /  /  / 
-----

e-|------------------------------------------------------------------------------------------------------|-
B-|------------------------------------------------------------------------------------------------------|-
G-|----4----4--5--4----4--5--5s7--5--4--2p0--------------------------------------------------------------|-
D-|-----------------------------------------------------4--5--7--7--7--7------------4--5--7--7--7s9--7---|-
A-|---------------------------------------------5----7----------------------5----7-----------------------|-
E-|------------------------------------------------------------------------------------------------------|-

e-|----------------------------------------------------------------------------------------|-
B-|----------------------------------------------------------------------------------------|-
G-|----4--4--2h4p2h4--4--4--4--5--5--4h5p4h5--5--5--5--7--7--7--7--9--11--12--14~----------|-
D-|----------------------------------------------------------------------------------------|-
A-|----------------------------------------------------------------------------------------|-
E-|----------------------------------------------------------------------------------------|-


chorus:
-------

      C
and i hope that you
Am
close your eyes
G 
block out the pain
     Em
of a thousand lives
  C
i hope that you
Am
die tonight
G               G/F#
just close your eyes
                Em
there goes the light
Am 
smile i'll brave it
Am                  D
while you wave your hand
    G
goodbye
Добавлено: 04.12.2015
Другие материалы по этой песне:
  • Аккорды и текст

Страница создана 21.06.2012
http://primanota.ru/rilo-kiley/three-hopeful-thoughts-chords.htm
Привет, Гость.
Предлагаем пройти революционный курс по гитаре.
Подарок от PrimaNota.Ru, забирай!