PrimaNota.ru - самый крупный в мире бесплатный архив песенных текстов, аккордов, табулатур и нот


Rilo Kiley - Spectacular Views - текст песни, таба, видео

Регистрация Запомнить меня
Войти через:  Facebook Google Twitter Vk Yandex Mail.ru

Rilo Kiley - Spectacular Views - текст песни, таба, видео

Печатать
Просмотров: 97
Авторы музыки: Jenny Lewis, Blake Sennett

Rilo Kiley – Spectacular Views (The Execution of All Things 2002)
Tabbed by Stéphane Lam - stelam@gmail.com

h - hammer on 
p - pull off 
/ - slide up
\ - slide down
x - muted, struck string
[]- harmonics
()- bend up to note in parenthesis
^ - bend string up
~ - vibrato
PM- palm mute

e|--------------------------------------------------|
B|8-8-8-8-5-5-5-5-5-5-5-5--5-5-5--------------------|
G|5-5-5-5-5-5-5-5-7^7^7^8^-5-5-5-5/12---------------|
D|-------------------------------5/10---------------|
A|--------------------------------------------------|
E|--------------------------------------------------|

e|--------------------------------------------------|
B|--------------------------------------------------|
G|---12-12-12-9--9--9--9--9--9--9--9----9—-9--9--9--|
D|---10-10-10-10-10-10-10-12^12^12^13^-10-10-10-10--|
A|--------------------------------------------------|
E|--------------------------------------------------| 

e|--------------------------------------------------|
B|8-8-8-8-5-5-5-5-5-5-5-5--5-5-5--------------------|
G|5-5-5-5-5-5-5-5-7^7^7^8^-5-5-5-5/12---------------|
D|-------------------------------5/10---------------|
A|--------------------------------------------------|
E|--------------------------------------------------|

e|--------------------------------------------------|
B|--------------------------------------------------|
G|---12-12-12-9--9--9--9--9--9--9--9---9—-9--9--9---|
D|---10-10-10-10-10-10-10-12^12^12^13^-10-10-10-10--|
A|--------------------------------------------------| x1 palm mute and
E|--------------------------------------------------| gradually release
                                                        
e|--------------------------------------------------|
B|--------------------------------------------------|
G|12-12-12-12-9--9--9--9--9--9--9--9---9—-9--9--9---|
D|10-10-10-10-10-10-10-10-12^12^12^13^-10-10-10-10--|
A|--------------------------------------------------| x3
E|--------------------------------------------------| 

e|--------------------------------------------------|
B|--------------------------------------------------|
G|12-12-12-12-9--9--9--9--9--9--9--9--9—-9--9--9----|
D|10-10-10-10-10-10-10-10-12-10-12-10-12-10-12-10---|
A|--------------------------------------------------|
E|--------------------------------------------------|

In steep cliffs…
e|--------------------------------------------------|
B|------------------------13-------13---------------|
G|9--------9--12-------12-14-------14--9------------|
D|10-------10-12-------12-15-------15-10------------|
A|--------------------------------------------------|
E|--------------------------------------------------|

e|--------------------------------------------------|
B|--------------------------------------------------|
G|---9-------9-------9h10p9----9----9---------------|
D|10---10-10---10-10--------10---10---10------------| 
A|--------------------------------------------------| x2 palm mute
E|--------------------------------------------------|

bits of foam…
e|--------------------------------------------------|
B|--------------------------------------------------|
G|------12-------12-------14-------12----12---------|
D|12-12----12-12----12-12----12-12----12---12-------| palm mute
A|--------------------------------------------------|
E|--------------------------------------------------|

new limestone…
e|--------------------------------------------------|
B|--------------------------------------------------|
G|------10-------10-------12-------10----10---------|
D|10-10----10-10----10-10----10-10----10----10------| palm mute
A|--------------------------------------------------|
E|--------------------------------------------------|

their turn…
e|--------------------------------------------------|
B|--------------------------------------------------|
G|-9--9--9-9--9h10/-12-12--10--10--10-10-x----------|
D|10-10-10-10-10----10-10--10--10--10-10-x----------| palm mute
A|--------------------------------------------------|gradually release
E|--------------------------------------------------|

no…
e|--------------------------------------------------|
B|--------------------------------------------------|
G|9--9--9--9--9--9--9--9--9--9--9--9--9--9--9—9-----|
D|10-10-10-10-10-10-10-10-10-10-10-10-10-10-10-10---|                   
A|10-10-10-10-10-10-10-10-10-10-10-10-10-10-10-10---|                
E|8--8--8--8--8--8--8--8--8--8--8--8--8--8--8--8----|


words…
e|--------------------------------------------------|
B|12-12-12-12-12-12-12-12-12-12-12-12-12-12-12-12---|
G|x--x--x--x--x--x--x--x--x--x--x--x--x--x--x--x----|
D|12-12-12-12-12-12-12-12-12-12-12-12-12-12-12-12---|
A|10-10-10-10-10-10-10-10-10-10-10-10-10-10-10-10---|
E|--------------------------------------------------|

Coast…
e|--------------------------------------------------|
B|10-10-10-10-10-10-10-10-10-10-10-10-10-10-10-10---|
G|x--x--x--x--x--x--x--x--x--x--x--x--x--x--x--x----|
D|10-10-10-10-10-10-10-10-10-10-10-10-10-10-10-10---|
A|8--8--8--8--8--8--8--8--8--8--8--8--8--8--8--8----|
E|--------------------------------------------------|

Today…
e|--------------------------------------------------|
B|--------------------------------------------------|
G|9--9--9--9--9-----10-x-12-12-x-10-10--10-x-9------|
D|10-10-10-10-10-x--10-x-12-12-x-10-10--10-x-10-----|
A|10-10-10-10-10-x--x--x-10-10-x-8--8---8--x-10-----|
E|8--8--8--8--8--x--8--x---------------------8------|

never knew…
e|--------------------------------------------------|
B|---13----13----13----13----13----13----13---------|
G|12----12----12----12----12----12----12----12------|
D|--------------------------------------------------|
A|--------------------------------------------------|
E|--------------------------------------------------|

felt so good…
e|--------------------------------------------------|
B|---12----12----12----12----12----12----12---------|
G|------12----12----12----12----12----12----12------|
D|--------------------------------------------------|
A|--------------------------------------------------|
E|--------------------------------------------------|

strangest of…                                   places…
e|--------------------------------------------------|
B|---13----13----13----13----13----13----13---------|
G|------12----12----12----12----12----12----12------|
D|--------------------------------------------------|
A|--------------------------------------------------|
E|--------------------------------------------------|

e|--------------------------------------------------|
B|--------------------------------------------------|
G|------9----9-10-9----------9----12-10-9-----------|
D|10-10---10--------10-10-10---10---------10--------|
A|--------------------------------------------------|
E|--------------------------------------------------|

waiting rooms…
e|--------------------------------------------------|
B|--------------------------------------------------|
G|------9----9-10-9----------9----12-10-9-----------|
D|10-10---10--------10-10-10---10---------10--------| x3 palm mute
A|--------------------------------------------------|
E|--------------------------------------------------|

e|--------------------------------------------------|
B|------------------------------10------------------|
G|------9----9-10-9-10-12-10-12----12-10------------|palm mute and 
D|10-10---10-----------------------------10---------|gradually release
A|--------------------------------------------------|
E|--------------------------------------------------|

No…
e|--------------------------------------------------|
B|--------------------------------------------------|
G|9--9--9--9--9--9--9--9--9--9--9--9--9--9--9—9-----|
D|10-10-10-10-10-10-10-10-10-10-10-10-10-10-10-10---|                   
A|10-10-10-10-10-10-10-10-10-10-10-10-10-10-10-10---|                
E|8--8--8--8--8--8--8--8--8--8--8--8--8--8--8--8----|

words…
e|--------------------------------------------------|
B|12-12-12-12-12-12-12-12-12-12-12-12-12-12-12-12---|
G|x--x--x--x--x--x--x--x--x--x--x--x--x--x--x--x----|
D|12-12-12-12-12-12-12-12-12-12-12-12-12-12-12-12---|
A|10-10-10-10-10-10-10-10-10-10-10-10-10-10-10-10---|
E|--------------------------------------------------|

Coast…
e|--------------------------------------------------|
B|10-10-10-10-10-10-10-10-10-10-10-10-10-10-10-10---|
G|x--x--x--x--x--x--x--x--x--x--x--x--x--x--x--x----|
D|10-10-10-10-10-10-10-10-10-10-10-10-10-10-10-10---|
A|8--8--8--8--8--8--8--8--8--8--8--8--8--8--8--8----|
E|--------------------------------------------------|

Today…
e|--------------------------------------------------|
B|--------------------------------------------------|
G|9--9--9--x--10-10----x--9--9--9--9--9--9----------|
D|10-10-10-x--x--x-----x--10-10-10-10-10-10---------|                   
A|10-10-10-x--10-10----x--10-10-10-10-10-10---------|                
E|8--8--8--x--8--8-----x--8--8--8--8--8--8----------|

Hold…
e|--------------------------------------------------|
B|--------------------------------------------------|
G|9--9--9--9--9--9--9--9--9--9--9--9--9--9--9—9-----|
D|10-10-10-10-10-10-10-10-10-10-10-10-10-10-10-10---|                   
A|10-10-10-10-10-10-10-10-10-10-10-10-10-10-10-10---|                
E|8--8--8--8--8--8--8--8--8--8--8--8--8--8--8--8----|

Breath…
e|--------------------------------------------------|
B|12-12-12-12-12-12-12-12-12-12-12-12-12-12-12-12---|
G|x--x--x--x--x--x--x--x--x--x--x--x--x--x--x--x----|
D|12-12-12-12-12-12-12-12-12-12-12-12-12-12-12-12---|
A|10-10-10-10-10-10-10-10-10-10-10-10-10-10-10-10---|
E|--------------------------------------------------|


Left…
e|--------------------------------------------------|
B|10-10-10-10-10-10-10-10-10-10-10-10-10-10-10-10---|
G|x--x--x--x--x--x--x--x--x--x--x--x--x--x--x--x----|
D|10-10-10-10-10-10-10-10-10-10-10-10-10-10-10-10---|
A|8--8--8--8--8--8--8--8--8--8--8--8--8--8--8--8----|
E|--------------------------------------------------|

Fade…
e|--------------------------------------------------|
B|--------------------------------------------------|
G|9--9--9--x--10-10----x--9--9--9--9--9--9----------|
D|10-10-10-x--x--x-----x--10-10-10-10-10-10---------|                   
A|10-10-10-x--10-10----x--10-10-10-10-10-10---------|                
E|8--8--8--x--8--8-----x--8--8--8--8--8--8----------|

e|--------------------------------------------------|
B|--------------------------------------------------|
G|-------------------------------9------------------|
D|--------------------------------------------------|
A|--------------------------------------------------|
E|--------------------------------------------------|

e|-----------------------------------------[12]-----|
B|----------------------------------------------[12]|
G|5-5-5-7-7-7-9-9-9-3-3-3-4~ -----[12]-[7]----------|
D|x-x-x-x-x-x-x-x-x-x-x-x-x~ -----------------------|
A|3-3-3-5-5-5-7-7-7-3-3-3-2~ -----------------------|
E|------------------------Let-ring-or-do-harmonics^^|

e|--------------------------------------------------|
B|--------------------------------------------------|
G|4-5-5-5-7-7-7-9-9-9-5-5-5-4-4-4-5-5-5-7-7-7-4-4-4-|
D|x-x-x-x-x-x-x-x-x-x-x-x-x-x-x-x-x-x-x-x-x-x-x-x-x-|
A|2-3-3-3-5-5-5-7-7-7-3-3-3-2-2-2-3-3-3-5-5-5-2-2-2-|
E|--------------------------------------------------|

e|--------------------------------------------------|
B|--------------------------------------------------|
G|5-5-5-7-7-7-9-9-9-12-12-12------------------------|
D|x-x-x-x-x-x-x-x-x-x--x--x--12~ -------------------|
A|3-3-3-5-5-5-7-7-7-10-10-10-x-~ -------------------|
E|---------------------------10~ -------------------|

e|--------------------[5]---------------------------|
B|[12]------[5]--------[5]--------------------------|
G|-----[12]-----[5]-----[5]-------------------------|
D|-----------------------[5]------------------------|
A|------------------------[5]-----------------------|you don't have
E|-------------------------[5]----------------------|to do this…

e|--------------------------------------------------|
B|--5-----------------------------------------------|
G|--7(9)---7(9)p5-5-7(8)~ --7(9)p5-5~ --------5~ \--|
D|------------------------------------5-7-5---------|
A|--------------------------------------------------|
E|--------------------------------------------------|

see the stars 
From where the birds make their homes
Staring 

back at us.
e|--------------------------------------------------|
B|---15-15-13---13--13--13--13--13--13--13--13------|
G|12----12----12--12--12--12--12--12--12--12--------|
D|--------------------------------------------------|
A|--------------------------------------------------|
E|--------------------------------------------------|

Different…
e|--------8---------8---------8---------------------|
B|--------------------------------------------------|
G|---9---------9---------9---------9----------------|
D|10---10---10---10---10---10---10---10-9-12--------|
A|--------------------------------------------------|
E|--------------------------------------------------|

Perfectly…
e|--------------------------------------------------|
B|--------------------------------------------------|
G|---------12----------12----------12---------------|
D|---12----------12----------12----------12---------|
A|10----10----10----10----10----10----10----10------|
E|--------------------------------------------------|

Endlessly…
e|--------------------------------------------------|
B|--------------------------------------------------|
G|-------10--------10--------10---------------------|
D|--10--------10--------10--------10----------------|
A|8----8----8----8----8----8----8----8--------------|
E|--------------------------------------------------|

Beautiful…
e|--------8---------8---------8---------------------|
B|--------------------------------------------------|
G|---9---------9---------9---------9----------------|
D|10---10---10---10---10---10---10---10-------------|
A|--------------------------------------------------|
E|--------------------------------------------------|

No…
e|--------------------------------------------------|
B|--------------------------------------------------|
G|9--9--9--9--9--9--9--9--9--9--9--9--9--9--9—9-----|
D|10-10-10-10-10-10-10-10-10-10-10-10-10-10-10-10---|                   
A|10-10-10-10-10-10-10-10-10-10-10-10-10-10-10-10---|                
E|8--8--8--8--8--8--8--8--8--8--8--8--8--8--8--8----|

Words…
e|--------------------------------------------------|
B|12-12-12-12-12-12-12-12-12-12-12-12-12-12-12-12---|
G|x--x--x--x--x--x--x--x--x--x--x--x--x--x--x--x----|
D|12-12-12-12-12-12-12-12-12-12-12-12-12-12-12-12---|
A|10-10-10-10-10-10-10-10-10-10-10-10-10-10-10-10---|
E|--------------------------------------------------|

Coast…
e|--------------------------------------------------|
B|10-10-10-10-10-10-10-10-10-10-10-10-10-10-10-10---|
G|x--x--x--x--x--x--x--x--x--x--x--x--x--x--x--x----|
D|10-10-10-10-10-10-10-10-10-10-10-10-10-10-10-10---|
A|8--8--8--8--8--8--8--8--8--8--8--8--8--8--8--8----|
E|--------------------------------------------------|

Today…
e|--------------------------------------------------|
B|--------------------------------------------------|
G|9--9--9--x--10-10----x--9--9--9--9--9--9----------|
D|10-10-10-x--x--x-----x--10-10-10-10-10-10---------|                   
A|10-10-10-x--10-10----x--10-10-10-10-10-10---------|                
E|8--8--8--x--8--8-----x--8--8--8--8--8--8----------|

Ask…
e|--------------------------------------------------|
B|--------------------------------------------------|
G|12-12-12-12-9--9--9--9--9--9--9--9---9—-9--9--9---|
D|10-10-10-10-10-10-10-10-12-12-12-12--14-14-14-14--|
A|--------------------------------------------------|
E|--------------------------------------------------| 

Palisade…
e|--------------------------------------------------|
B|--------------------------------------------------|
G|12-12-12-12-9--9--9--9--9--9--9--9---9—-9--9--9---|
D|10-10-10-10-10-10-10-10-12^12^12^13^-10-10-10-10--|
A|--------------------------------------------------|
E|--------------------------------------------------| 

Late…
e|--------------------------------------------------|
B|--------------------------------------------------|
G|12-12-12-12-9--9--9--9--9--9--9--9---9—-9--9--9---|
D|10-10-10-10-10-10-10-10-12-12-12-12--14-14-14-14--|
A|--------------------------------------------------|
E|--------------------------------------------------| 

Happiness…
e|--------------------------------------------------|
B|--------------------------------------------------|
G|12-12-12-12-9--9--9--9--9--9----9---—-9--9--------|
D|10-10-10-10-10-10-10-10-12---12---12-10-10--------|
A|--------------------------------------------------|
E|--------------------------------------------------|

e|--------------------------------------------------|
B|--------------------------------------------------|
G|--------------------------------------------------|
D|----2-------2-------2---2H3-2---2-------2-------2-|
A|3-3---3-3-3---3-3-3---3-------3-----3-3---3-3-3---|
E|--------------------------------------------------|

e|----------------------0---------------------------|
B|----------------------0---------------------------|
G|----------------------0---------------------------|
D|------2---2-3-5-3-2-3-2---------------------------|
A|3-3-3---3-------------3---------------------------|
E|--------------------------------------------------|

e|--------------------------------------------------|
B|--------------------------------------------------|
G|12-12-12-12-9--9--9--9--9--9--9--9---9—-9--9--9---|
D|10-10-10-10-10-10-10-10-12^12^12^13^-10-10-10-10--|
A|--------------------------------------------------| x3
E|--------------------------------------------------| 

e|-------------------------------------------------0|
B|------------------------------------------0-x-0--0|
G|12-12-12-12-9--9--9--9--9--9--9--9--9—-9--0-x-0--0|
D|10-10-10-10-10-10-10-10-12-10-12-10-12-10-0-x-2--2|
A|------------------------------------------0-x-3--3| 
E|--------------------------------------------------|
                                            ^   ^
                                           PM  PM                                    


Добавлено: 08.07.2012
Другие материалы по этой песне:
  • Аккорды и текст

Страница создана 22.04.2012
http://primanota.ru/rilo-kiley/spectacular-views-chords.htm
Привет, Гость.
Предлагаем пройти революционный курс по гитаре.
Подарок от PrimaNota.Ru, забирай!