PrimaNota.ru - самый крупный в мире бесплатный архив песенных текстов, аккордов, табулатур и нот


Rilo Kiley - So Long - аккорды и текст, видео

Регистрация Запомнить меня
Войти через:  Facebook Google Twitter Vk Yandex Mail.ru

Rilo Kiley - So Long - аккорды и текст, видео

Печатать
Просмотров: 99
Авторы музыки: Jenny Lewis, Blake Sennett

So Long
Rilo Kiley
SO LONG
by rilo kiley
from their album 'the execution of all things'

tabbed by drew (iamdrew@gmail.com)

this is such an adorable song.  i wish he'd sing more on this album.

i spent so long thinking there was a chord in between Em and G for the chorus "lo~ng"s.  but there's not.

it's nice to add a F#/G in there if you're playing acoustic, but i promise it's not in the bass track

anyways, hope you enjoy.



(capo 5, key of F)

         E A D G B e
         -----------
C7M      x 3 2 0 0 x
G6       3 2 0 0 x x
Am       x 0 2 2 1 0
D        x x 0 2 3 2
Em       0 2 2 0 0 0
F#/G     2 0 0 0 3 x
Em7      0 2 2 0 3 0  


fill
----

play this wherever you see a (*) after a G6.

e-|----------------------|-
B-|----1p0-------1p0-----|-
G-|---------0---------0--|-
D-|----------------------|-
A-|----------------------|-
E-|----------------------|-



intro:      C7M      G6(*)
------

verse:
------

C7M          G6(*)
watch me fly away
C7M                   G6(*)
through the night sky yeah
         Am      
now that all you touched
    D                 C7M     G6(*)
has finally turned to gray

     C7M                G6(*)
and roads can't hold us down
C7M                G6(*)
winds will move us around
     Am           D
with no need to return
             C7M    G6(*)  
to this gray town


chorus:
-------

Em            Am
want to bet?  i can tell
C7M            D           Em G
you've been in bed for too lo~ng
   C7M        D      G(*)
so let's just say so long



verse:
------

      C7M                G6(*)
and i watched you at the cove
    C7M             G6(*)
you read on rocks below
    Am      
and i turned home
    D                C7M    G6(*)  
without so much as a hello


chorus:
-------

Em           Am
want to know where i go
C7M        D           Em G
i've been away for too lo~ng
         C7M     D    
and it's hard to leave
     G F#/G    Em7
when i haven't seen
C7M    D  G6(*)
you in so long


bridge:
-------

D   G
and if we
    Em        F#/G      C7M  
had just held out for tomorrow
   D          G
we might have seen
     Em        F#/G  C7M  
what seemed so far   away
   Em          F#/G      C7M    /  /  /  /  (etc, then) -> C7M   (hold)
we didn't even bother to stay


interlude / solo:   C7M    G6(*)  C7M    G6(*)  
-----------------

     C7M             G6(*)           C7M              G(*)              

e-|--0----0--2--0---------------------0----0--2-------3-3--------7--------|-
B-|------------------0----------------------------------------------7--8--|-
G-|-----------------------------------------------------------------------|-
D-|-----------------------4--5--------------------------------------------|-
A-|-----------------------------------------------------------------------|-
E-|-----------------------------------------------------------------------|-

     Am                          D                         C7M   G6        

e-|----------------------0-------------------0------------------------7--------|-
B-|----0--3--0--3--0--3-----3----0--3--0--3-----3--0---------------------7--8--|-
G-|---------------------------------------------------0----------4-------------|-
D-|--------------------------------------------------------4--5----------------|-
A-|----------------------------------------------------------------------------|-
E-|----------------------------------------------------------------------------|-


chorus:
-------

Em            Am
there it goes i can tell
C7M             D
you're going to keep
     Em          G
your eyes to the ground
C7M         D
waiting for something
   G       F#/G Em
to finally come around
    C7M               D   
and tell you what you knew
     G   F#/G    Em
that you weren't wrong
    C7M              D               C7M     G6(*)
and it's finally time for so- 


outro:      C7M      G6(*)
------
Добавлено: 04.12.2015
Другие материалы по этой песне:
  • Аккорды и текст

Страница создана 26.03.2012
http://primanota.ru/rilo-kiley/so-long-chords.htm
Привет, Гость.
Предлагаем пройти революционный курс по гитаре.
Подарок от PrimaNota.Ru, забирай!