PrimaNota.ru - самый крупный в мире бесплатный архив песенных текстов, аккордов, табулатур и нот


Rilo Kiley - Hail To Whatever You Found In The Sunlight That Surrounds You - текст песни, таба, видео

Регистрация Запомнить меня
Войти через:  Facebook Google Twitter Vk Yandex Mail.ru

Rilo Kiley - Hail To Whatever You Found In The Sunlight That Surrounds You - текст песни, таба, видео

Печатать
Просмотров: 84
Авторы музыки: Jenny Lewis, Blake Sennett

Rilo Kiley
“Hail To Whatever You Found In the Sunlight that Surrounds You”
off of the album, The Execution of All Things

CAPO 2nd fret
key of Bm

I know this isn't exactly like the recording, but it's what I came up with, and it works 
to sing along to.

As I'm sure you've noticed, the basic riff has a baseline walk– makes it easier to 
out the tempo if you keep this in mind.  Also, for the G note on the sixth string (fret “1” 
the E string in the tab), I use my thumb.

Have fun with this gorgeous, haunting song.

Strumming: (/) = downstroke (entire chord)
           (\) = upstroke (“)
           (\ /) = up-down (“)

intro:

   Bm   					     F#m      	    G	       A

e ---------------------------------|--------------------0---0---0---0-|
B ----1---1---1---1---1---1---1---1|----3---3---3---3------0-------0--|
G -------2-------2-------2-------2-|-------4-------4------------------|
D ---------------------------------|----------------------------------|
A --0------------------------------|----------------------------------|
E ----------3------1-------0-------|--0------0-------1-------3--------|

x3

verse:

(same as above) x4, with words:

Hail to those who have come from the sunlight that surrounds you
Pray for those who have gone from the sunlight that surrounds you

Hail to those who have come from the sunlight that surrounds you
Pray for those who have gone from the sunlight that surrounds you

chorus:

    Em				       Bm

e --1--------------------------------0---------------------|
B --3-------------------------------1----------------------|
G --2--(/)--(\ /)-—(/ /)--(\ /)----2-----------------------|
D --0-----------------------------2------------------------|
A -------------------------------0-------------------------|
E ---------------------------------------------------------|
    Pretend all the good things are for  you.

(intro riff) x1

verse:

   Bm   	    A	    	    G	         F#

e -0----------X----------1----------0----------|
B -1----------3----------1----------0----------|
G -2(/)-(\ /)-0(/)-(\ /)-2(/)-(\ /)-1(/)-(\ /)-|
D -2----------0----------3----------2----------|
A -0----------2----------3----------2----------|
E -0----------3----------1----------0----------|

1. Hail to those who have come from the sun-
2. Hail to whatever you found in the sun-


				  F#		   F#		    G		    A

				-|-1----------0----------1----------X----------|
				-|-0----------0----------1----------3----------|
				-|-1(/)-(\ /)-1(/)-(\ /)-2(/)-(\ /)-0(/)-(\ /)-|
				-|-2----------2----------3----------0----------|
				-|-2----------2----------3----------2----------|
				-|-0----------0----------1----------3----------|

				1. -light that surrounds you
				2. -light that surrounds you

chorus:

    Em				       Bm
e --1----------------------------0----------------------------|
B --3----------------------------1----------------------------|
G --2--(/)--(\ /)-—(/ /)--(\ /)--2--(/)--(\ /)-—(/ /)---------|(\ /)—
D --0----------------------------2----------------------------|
A -------------------------------0----------------------------|
E ------------------------------------------------------------|
   Pretend all the good things are for  you.


    Em				       Bm
e --1----------------------------0----------------------------|
B --3----------------------------1----------------------------|
G --2--(/)--(\ /)-—(/ /)--(\ /)--2--(/)--(\ /)-—(/ /)---------|(\ /)—
D --0----------------------------2----------------------------|
A -------------------------------0----------------------------|
E ------------------------------------------------------------|
   Pretend all the good things are for  me too.    		And the…

    Em		 D		   Bm   		D
e --1------------0------------0------------0-------------|
B --3------------1------------1------------1-------------|
G --2-(/)--(\ /)-0-(/)--(\ /)-2-(/)--(\ /)-0 -(/)--(\ /)-|
D --0------------2------------2------------2-------------|
A ---------------3------------0------------3-------------|
E -------------------------------------------------------|
   …weather it   changes not  halfway      between

          G		 A		   Bm
-|--1------------3------------0-------------------------|
-|--1------------3------------1-------------------------|
-|--2-(/)--(\ /)-4-(/)--(\ /)-2-(/)--(\ /)-(/ /)--(\ /)-|
-|--3------------5------------2-------------------------|
-|--3------------5------------0-------------------------|
-|--1------------3--------------------------------------|
    your         house and    mine.

bridge:

   Bm   					     F#m      	    G	       A
e ---------------------------------|--------------------0---0---0---0-|
B ----1---1---1---1---1---1---1---1|----3---3---3---3------0-------0--|
G -------2-------2-------2-------2-|-------4-------4------------------|
D ---------------------------------|----------------------------------|
A --0------------------------------|----------------------------------|
E ----------3------1-------0-------|--0------0-------1-------3--------|

  		   F#   			       G
    e ------------------------|---------1----1----1-0----|
    B -------0----0----0------|------0----0----3---------|
    G ----1----1----1----1----|--------------------------|
    D ------------------------|--------------------------|
    A ------------------------|--------------------------|
    E --0---------------------|--0h1---------------------|

Bm   					     F#m      	    G	       A
e ---------------------------------|--------------------0---0---0---0-|
B ----1---1---1---1---1---1---1---1|----3---3---3---3------0-------0--|
G -------2-------2-------2-------2-|-------4-------4------------------|
D ---------------------------------|----------------------------------|
A --0------------------------------|----------------------------------|
E ----------3------1-------0-------|--0------0-------1-------3--------|

chorus:

    Em				       Bm
e --1----------------------------0----------------------------|
B --3----------------------------1----------------------------|
G --2--(/)--(\ /)-—(/ /)--(\ /)--2--(/)--(\ /)-—(/ /)---------|(\ /)—
D --0----------------------------2----------------------------|
A -------------------------------0----------------------------|
E ------------------------------------------------------------|
1.	Pretend all the good things are for  you.

    Em				       Bm
e --1----------------------------0----------------------------|
B --3----------------------------1----------------------------|
G --2--(/)--(\ /)-—(/ /)--(\ /)--2--(/)--(\ /)-—(/ /)---------|(\ /)—
D --0----------------------------2----------------------------|
A -------------------------------0----------------------------|
E ------------------------------------------------------------|
 1. Pretend all the good things are for  me too.    		And the…

    Em		 D		    Em
e --1------------0-------------1----0----0----1-----|
B --3------------1-------------3----1----3----2-----|
G --2-(/)--(\ /)-0-(/)--(\ /)--2----0----4----3-----|
D --0------------2-------------0----0----2----0-----|
A ---------------3----------------------------------|
E --------------------------------------------------|
 1.…weather it   changes not   half-way  be-  tween

          G		 A		   Bm
-|--1------------3------------0-------------------------|
-|--1------------3------------1-------------------------|
-|--2-(/)--(\ /)-4-(/)--(\ /)-2-(/)--(\ /)-(/ /)--(\ /)-|
-|--3------------5------------2-------------------------|
-|--3------------5------------0-------------------------|
-|--1------------3--------------------------------------|
    your         house and    mine.			   And…

2. …all of the good things are for me.  And…
   …all of the good things are for you too.  And the…
   …weather it changes not halfway between your house and mine.

outro:

improvise and/or strum chords. you've a lot of time to fill, probably want to cut it off early.

-----

As I've said, this is my interpretation, but if you feel like correcting me, or feel 
chat, drop me a line…
laivine (at) umail (dot) ucsb (dot) edu
Добавлено: 21.07.2012
Другие материалы по этой песне:
  • Аккорды и текст

Страница создана 21.07.2012
http://primanota.ru/rilo-kiley/hail-to-whatever-you-found-in-the-sunlight-that-surrounds-you-chords.htm
Привет, Гость.
Предлагаем пройти революционный курс по гитаре.
Подарок от PrimaNota.Ru, забирай!