PrimaNota.ru - самый крупный в мире бесплатный архив песенных текстов, аккордов, табулатур и нот


Rik Emmett - Let Me Be The One - таба, видео

Регистрация Запомнить меня
Войти через:  Facebook Google Twitter Vk Yandex Mail.ru

Rik Emmett - Let Me Be The One - таба, видео

Печатать
Просмотров: 104
[A]: Main Riff

--12---10---8---5---5---------0h5-------|--12---10---8---5---5---------0h5---------|
--10----9---7---3---3-------3---3-------|--10----9---7---3---3-------3-----3-------|
---9----7---5---2---2-----2-------2-----|---9----7---5---2---2-----2---------2-----|
------------------------0-----------0---|------------------------0-------------0---|
----------------------------------------|------------------------------------------|
----------------------------------------|------------------------------------------|

	G			  D			C		A
Who will vow to have and hold you, love you more than words can say?
	G			D		C			A
Who will build their world around you and stand beside you all the way?
		F		   C		D			A
When you need a friend you can rely on, a shoulder you can cry on
			F					  C
Who will pick you up when you fall, who will come running when you call,
		D					A
Who'll be there for you when all is said and done?
	 E
Let Me Be The One…

--12---10---8---5---5---------0h5-------|--12---10---8---5---5---------0h5---------|
--10----9---7---3---3-------3---3-------|--10----9---7---3---3-------3-----3-------|
---9----7---5---2---2-----2-------2-----|---9----7---5---2---2-----2---------2-----|
------------------------0-----------0---|------------------------0-------------0---|
----------------------------------------|------------------------------------------|
----------------------------------------|------------------------------------------|

	G			D	C		A
Who will help you write the pages in the story of your life?
		G			  D		C		A
And who will promise you tomorrow every single time you kiss goodnight?
		F		   C		D			A
Who will love you always and forever, as you face this crazy world together?
		F					  
Who will make you smile through your tears, & who'll share all your secret fears?
		D					A
Who'll wake up beside you when each mornin' comes?
	 E
Let Me Be The One…

		  G
Let Me Be The One your heart will know
	E
The partner of your soul
	G
The one who laughs and cries with you
				F
The one who lives and dies for you
	G
The only one you need
	E				G
To share your hopes and dreams, darlin'
		G7			F
I can handle any fate that comes
	G			E
If you would only Let Me Be The One…

--12---10---8---5---5---------0h5-------|--12---10---8---5---5---------0h5---------|
--10----9---7---3---3-------3---3-------|--10----9---7---3---3-------3-----3-------|
---9----7---5---2---2-----2-------2-----|---9----7---5---2---2-----2---------2-----|
------------------------0-----------0---|------------------------0-------------0---|
----------------------------------------|------------------------------------------|
----------------------------------------|------------------------------------------|

		Let Me 	Be 	The				  One…
|-12-0---11-0---9-0------0------0-----0------0-----0---|-0-|
|------0------0-----0-12---0-10---0-9---0------0-----0-|-0-|
|-----------------------------------------11-----9-----|-1-|
|------------------------------------------------------|-2-|
|------------------------------------------------------|-2-|
|------------------------------------------------------|-0-|
Добавлено: 16.03.2012
Вам также может быть интересно:
Другие материалы по этой песне:
  • Аккорды и текст

Страница создана 16.03.2012
http://primanota.ru/rik-emmett/let-me-be-the-one-chords.htm
Привет, Гость.
Предлагаем пройти революционный курс по гитаре.
Подарок от PrimaNota.Ru, забирай!