PrimaNota.ru - самый крупный в мире бесплатный архив песенных текстов, аккордов, табулатур и нот


Righteous Kill - Monster - таба, видео

Регистрация Запомнить меня
Войти через:  Facebook Google Twitter Vk Yandex Mail.ru

Righteous Kill - Monster - таба, видео

Печатать
Просмотров: 57
-------------------------------------------------------------------------------
                             Monster - Righteous Kill
-------------------------------------------------------------------------------
Tabbed by: Matt

Tuning: Standard

e|---------------------------------------------------------------------------|
B|---------------------------------------------------------------------------|
G|-99-99-9999-9999--55-55-5555-5555------------------------------------------|
D|-99-99-9999-9999--55-55-5555-5555--5--5--------2---------------------------|
A|-77-77-7777-7777--33-33-3333-3333--5--5--------2---------------------------|
E|-----------------------------------3--2--2-3-2-0---------------------------|


e|---------------------------------------------------------------------------|
B|---------------------------------------------------------------------------|
G|-99-99-9999-9999--55-55-5555-5555------------------------------------------|
D|-99-99-9999-9999--55-55-5555-5555--55-55-55-------22-22-2222-2222------X3--|
A|-77-77-7777-7777--33-33-3333-3333--55-55-55-------22-22-2222-2222----------|
E|-----------------------------------33-33-22-2-3-2-00-00-0000-0000----------|

e|---------------------------------------------------------------------------|
B|---------------------------------------------------------------------------|
G|-77-77-7777--12-11-99-99-9999-9999--77-77-7777-----------------------------|
D|-77-77-7777---x-x--99-99-9999-9999--77-77-7777--5-5-22-22-2222-2222--------|
A|-55-55-5555--10-9--77-77-7777-7777--55-55-5555--5-5-22-22-2222-2222--------|
E|------------------------------------------------3-2-00-00-0000-0000--------|

e|---------------------------------------------------------------------------|
B|---------------------------------------------------------------------------|
G|-77-77-7777--12-11-99-99-9999-9999--77-77-7777-----------------------------|
D|-77-77-7777---x-x--99-99-9999-9999--77-77-7777--5-5-22---------------------|
A|-55-55-5555--10-9--77-77-7777-7777--55-55-5555--5-5-22---------------------|
E|------------------------------------------------3-2-0----------------------|

e|---------------------------------------------------------------------------|
B|---------------------------------------------------------------------------|
G|-99-99-9999-9999--55-55-5555-5555------------------------------------------|
D|-99-99-9999-9999--55-55-5555-5555--55-55-55-------22-22-2222-2222------X3--|
A|-77-77-7777-7777--33-33-3333-3333--55-55-55-------22-22-2222-2222----------|
E|-----------------------------------33-33-22-2-3-2-00-00-0000-0000----------|

e|---------------------------------------------------------------------------|
B|---------------------------------------------------------------------------|
G|-77-77-7777--12-11-99-99-9999-9999--77-77-7777-----------------------------|
D|-77-77-7777---x-x--99-99-9999-9999--77-77-7777--5-5-22-22-2222-2222--------|
A|-55-55-5555--10-9--77-77-7777-7777--55-55-5555--5-5-22-22-2222-2222--------|
E|------------------------------------------------3-2-00-00-0000-0000--------|

e|---------------------------------------------------------------------------|
B|---------------------------------------------------------------------------|
G|-77-77-7777--12-11-99-99-9999-9999--77-77-7777-----------------------------|
D|-77-77-7777---x-x--99-99-9999-9999--77-77-7777--5-5-2----------------------|
A|-55-55-5555--10-9--77-77-7777-7777--55-55-5555--5-5-2----------------------|
E|------------------------------------------------3-2-0----------------------|

e|---------------------------------------------------------------------------|
B|---------------------------------------------------------------------------|
G|-99-99-9999-9999--55-55-5555-5555------------------------------------------|
D|-99-99-9999-9999--55-55-5555-5555--55-55-55-------22-22-2222-2222------X3--|
A|-77-77-7777-7777--33-33-3333-3333--55-55-55-------22-22-2222-2222----------|
E|-----------------------------------33-33-22-2-3-2-00-00-0000-0000----------|

e|---------------------------------------------------------------------------|
B|---------------------------------------------------------------------------|
G|-77-77-7777--12-11-99-99-9999-9999--77-77-7777-----------------------------|
D|-77-77-7777---x-x--99-99-9999-9999--77-77-7777--5-5-22-22-2222-2222--------|
A|-55-55-5555--10-9--77-77-7777-7777--55-55-5555--5-5-22-22-2222-2222--------|
E|------------------------------------------------3-2-00-00-0000-0000--------|

e|---------------------------------------------------------------------------|
B|---------------------------------------------------------------------------|
G|-77-77-7777--12-11-99-99-9999-9999--77-77-7777-----------------------------|
D|-77-77-7777---x-x--99-99-9999-9999--77-77-7777--5-5-2----------------------|
A|-55-55-5555--10-9--77-77-7777-7777--55-55-5555--5-5-2----------------------|
E|------------------------------------------------3-2-0----------------------|


e|---------------------------------------------------------------------------|
B|---------------------------------------------------------------------------|
G|-99-99-9999-9999--55-55-5555-5555------------------------------------------|
D|-99-99-9999-9999--55-55-5555-5555--55-55-55-------22-22-2222-2222------X4--|
A|-77-77-7777-7777--33-33-3333-3333--55-55-55-------22-22-2222-2222----------|
E|-----------------------------------33-33-22-2-3-2-00-00-0000-0000----------|



************************************

Добавлено: 28.12.2015
Другие материалы по этой песне:
  • Аккорды и текст

Страница создана 28.12.2015
http://primanota.ru/righteous-kill/monster-chords.htm
Привет, Гость.
Предлагаем пройти революционный курс по гитаре.
Подарок от PrimaNota.Ru, забирай!