PrimaNota.ru - самый крупный в мире бесплатный архив песенных текстов, аккордов, табулатур и нот


Right Away Great Captain - Memories From The End Part 2 - таба, видео

Регистрация Запомнить меня
Войти через:  Facebook Google Twitter Vk Yandex Mail.ru

Right Away Great Captain - Memories From The End Part 2 - таба, видео

Печатать
Просмотров: 68
-------------------------------------------------------------------------------
                             MEMORIES FROM THE END - Right Away, Great Captain!
-------------------------------------------------------------------------------
Tabbed by: Rabbit Ran (Eddie Schillo)
E-mail: theselfandtheshadow@gmail.com

Tuning: Standard (EADGBe)


Verse:

e|---------------------------------|-------------------------------|---------|
B|---------------------------------|-------------------------------|---------|
G|-----5--5-5-5-(0)----------------|---3--3-3-3-(0)----------------|---------|
D|-----5--5-5-5-(0)---5--5-5-5-(0)-|---3--3-3-3-(0)---3--3-3-3-(0)-|---------|
A|-----3--3-3-3-(0)---5--5-5-5-(0)-|---1--1-1-1-(0)---3--3-3-3-(0)-|---------|
E|--------------------3--3-3-3-(0)-|------------------1--1-1-1-(0)-|---------|
                                   x2                             x2
Chorus:

e|------------------|---------------|---------------|----------------|-------|
B|------------------|---------------|---------------|----------------|-------|
G|------------------|--5--5-5-5-(0)-|---------------|--5--5-5-5-(0)--|-------|
D|-----3--3-3-3-(0)-|--5--5-5-5-(0)-|--3--3-3-3-(0)-|--5--5-5-5-(0)--|-------|
A|-----3--3-3-3-(0)-|--3--3-3-3-(0)-|--3--3-3-3-(0)-|--3--3-3-3-(0)--|-------|
E|-----1--1-1-1-(0)-|---------------|--1--1-1-1-(0)-|----------------|-------|
                   x2             x2             x2           x2
e|--------------------------------|------------------------------------------|
B|--------------------------------|------------------------------------------|
G|-----3--3-3-3-(0)---------------|------------------------------------------|
D|-----3--3-3-3-(0)--3--3-3-3-(0)-|------------------------------------------|
A|-----1--1-1-1-(0)--3--3-3-3-(0)-|------------------------------------------|
E|-------------------1--1-1-1-(0)-|------------------------------------------|
                                  x2
Добавлено: 06.11.2013
Другие материалы по этой песне:
  • Аккорды и текст

Страница создана 06.11.2013
http://primanota.ru/right-away-great-captain/memories-from-the-end-part-2-chords.htm
Привет, Гость.
Предлагаем пройти революционный курс по гитаре.
Подарок от PrimaNota.Ru, забирай!