PrimaNota.ru - самый крупный в мире бесплатный архив песенных текстов, аккордов, табулатур и нот


Rie Fu - 1962 - аккорды и текст, видео

Регистрация Запомнить меня
Войти через:  Facebook Google Twitter Vk Yandex Mail.ru

Rie Fu - 1962 - аккорды и текст, видео

Печатать
Просмотров: 143
1962
Rie Fu
-------------------------------------------------------------------------------
                             1962 - Rie fu
-------------------------------------------------------------------------------
Tabbed by: Danang Dwi P
E-mail: dannangdp@gmail.com (double "n")

Lyric and Chord form 1962 by Rie fu. One of my favorite song in Rie fu's new album "I"
you can request another chord/tab from any Rie fu's song ^^

Tuning: standart

e|---------------------------------------------------------------------------|
B|---------------------------------------------------------------------------|
G|---------------------------------------------------------------------------|
D|---------------------------------------------------------------------------|
A|---------------------------------------------------------------------------|
E|--7-7-0-5-7-7-0-5-7-7-0-5-7-7-0-5------------------------------------------|

B            E  A
When your mommy had you
B            E  A       B       E  A
people gathered around
B            E  A       B       E  A
Biggest baby they have seen at eleven pounds

e|---------------------------------------------------------------------------|
B|---------------------------------------------------------------------------|
G|---------------------------------------------------------------------------|
D|---------------------------------------------------------------------------|
A|------4-------4-------0-------0--------------------------------------------|
E|--4-4---3-4-4---3-2-2---1-2-2---1------------------------------------------|

G#5    F#5
Wide a-wake

B                  E   A           B            E  A      B            E  A
And the something changed when you dropped the needle down
B                     E  A     B         E  A     B            E  A
Oh they used to dance to that psychedelic sound

e|---------------------------------------------------------------------------|
B|---------------------------------------------------------------------------|
G|---------------------------------------------------------------------------|
D|---------------------------------------------------------------------------|
A|------4-------4-------0---------------------------------------------------|
E|--4-4---3-4-4---3-2-2---1-2-3-4-5------------------------------------------|

G#5    F#5
Wide a-wake


B
Remember how we used to drive the Chevy
A
The moon was numb, the sun was heavy
E         G    A
and wild, wild wild
B
Remember how we used to load the Remy
A
The take was strong, the grip was steady
E         G    A
and wild, wild wild times

B              E   A  B       E  A  B       E  A
Imitation show on the crazy circus stage
B                E  A   B          E  A   B       E  A
I see it everywhere and nothing seems to change
G#5    F#5
Wide a-wake 

B
Remember how we used to drive the Chevy
A
The moon was numb, the sun was heavy
E         G    A
and wild, wild wild
B
Remember how we used to load the Remy
A
The take was strong, the grip was steady
E         G    A
and wild, wild wild

*)
I'm craving for ideas,
just hoping you would see us
Come by and give the eye,
don't wind up like the other divas

B
Remember how we used to drive the Chevy
A
The moon was numb, the sun was heavy
E         G    A
and wild, wild wild
B
Remember how we used to load the Remy
A
The take was strong, the grip was steady
E         G   
and wild, wild
E     G
wild, wild
E     G
wild, wild
E     G    A
wild, wild times

B                E  A
I'm craving for ideas,
B                     E   A
just hoping you would see us
B                    E   A
Come by and give the eye,
B                        E   A
don't wind up like the other divas
B            E  A
I'm craving for ideas,
B                     E   A
just hoping you would see us
B                    E   A
Come by and give the eye,
B                        A5
don't wind up like the other divas


*) I'm not sure what happened in that part. haha :D, I think there's no chord or tab played.
Correct me if I'm wrong. Thank you
Добавлено: 03.09.2015
Другие материалы по этой песне:
  • Аккорды и текст

Страница создана 03.09.2015
http://primanota.ru/rie-fu/1962-chords.htm
Привет, Гость.
Предлагаем пройти революционный курс по гитаре.
Подарок от PrimaNota.Ru, забирай!