PrimaNota.ru - самый крупный в мире бесплатный архив песенных текстов, аккордов, табулатур и нот


Riding Alone For Thousands Of Miles - Last 100 Days - таба, видео

Регистрация Запомнить меня
Войти через:  Facebook Google Twitter Vk Yandex Mail.ru

Riding Alone For Thousands Of Miles - Last 100 Days - таба, видео

Печатать
Просмотров: 110
Уроки эстрадного вокала в Санкт-Петербурге
----------------------------------------------------------------------------  
        Last 100 Days - Riding Alone for Thousands of Miles

----------------------------------------------------------------------------

Tabbed by: Xeros

Tuning: Half-Step Down

This is the tab for the guitars on the right and left channels of the recording.  
I don't know what the other guitars are doing so contributions are welcome.


   ( intro starting at 0:56 )
   P.M. ..................................................  (played 3 times)
eb|------------------------------------------------------------------------|
Bb|------------------------------------------------------------------------|
F#|-7777777-------7-----7---7---7------------------------------------------|
Db|-9999999-9-9-9-9-9-9-9-99999999--9----9------------999------------------|
G#|--------1010101010101010999999999999999999999999999999------------------|
Eb|-------------------------------88888888777777777788888------------------|



   P.M. ....................
eb|------------------------------------------------------------------------|
Bb|------------------------------------------------------------------------|
F#|-7777-------------------------------------------------------------------|
Db|-9999-9-9-99999----------------99999------------------------------------|
G#|-----1010109999999999999999999999999------------------------------------|
Eb|---------------888887777777777777777------------------------------------|



  ( riff played when drums enter at 1:36 )
eb|------------------------------------------------------------------------|
Bb|---0---0----------------------------------------------------------------|
F#|-0000000-222222222/-777777777777777-------------------------------------|
Db|-0000000-000000000/-999999999999999-------------------------------------|
G#|-xxxxxxx-xxxxxxxxx/-xxxxxxxxxxxxxxx-------------------------------------|
Eb|-3333333-222222222/-777777777777777-------------------------------------|



  ( riff starting at 3:03 )
eb|------------------------------------------------------------------------|
Bb|------------------------------------------------------------------------|
F#|------------------------------------------------------------------------|
Db|-4444444444444444444444444444444----------------------------------------|
G#|-2222222222222222222222222222222----------------------------------------|
Eb|--------333333333222222222222222----------------------------------------|




  ( riff starting at 4:30 )
   P.M. ..........................
eb|------------------------------------------------------------------------|
Bb|------------------------------------------------------------------------|
F#|------------------------------------------------------------------------|
Db|------------------------------------------------------------------------|
G#|--------------------5-5-----5-5-----------------------------------------|
Eb|-3333333222222222/77-7-77777-7-7/---------------------------------------|


   ( ending riff played until end at 7:15 )   ( ending chord )
eb|-----------------------------------------|------------------------------|
Bb|---0---0---------------------------------|-0----------------------------|
F#|-0000000-222222222/-777777777777777------|-0----------------------------|
Db|-0000000-000000000/-999999999999999------|-0----------------------------|
G#|-xxxxxxx-xxxxxxxxx/-xxxxxxxxxxxxxxx------|-x----------------------------|
Eb|-3333333-222222222/-777777777777777------|-3----------------------------|
Добавлено: 08.11.2013
Вам также может быть интересно:
Другие материалы по этой песне:
  • Аккорды и текст

Страница создана 08.11.2013
http://primanota.ru/riding-alone-for-thousands-of-miles/last-100-days-chords.htm
Привет, Гость.
Предлагаем пройти революционный курс по гитаре.
Подарок от PrimaNota.Ru, забирай!