PrimaNota.ru - самый крупный в мире бесплатный архив песенных текстов, аккордов, табулатур и нот


Ridged Conslusion - Liftaway - аккорды и текст, видео

Регистрация Запомнить меня
Войти через:  Facebook Google Twitter Vk Yandex Mail.ru

Ridged Conslusion - Liftaway - аккорды и текст, видео

Печатать
Просмотров: 59
Liftaway
Ridged Conslusion
Song: Liftaway
By: Ridged conclusion
Category: Rock

This song is in drop D tuning(D,A,D,G,B,E)

h = hammeron
p = pullof

Intro

e-----------------------------------------------------------------------
b-----------------------------------------------------------------------
g------2h3p2----2h3p2-----2h3p2-----2h3p2-------2h3p2-----2h3p2---------
d--0----------0-----------3----------3----------------------------------
a---------------------------------------------------3----------3--------
d-----------------------------------------------------------------------

e-----------------------------------------------------------------------
b-----------------------------------------------------------------------
g---2h3p2-----2h3p2-----------------------------------------------------
d-3----------2----------------------------------------------------------
a-----------------------------------------------------------------------
d-----------------------------------------------------------------------

Chorus

e-----------------------------------------------------------------------
g-----------------------------------------------------------------------
b----------------------------------5-5-5-5-5-5--------------------------
d--0-0-0-0-0-0----3-3-3-3-3-3--5-5-5-5-5-5--3-3---2-2-------------------
a--0-0-0-0-0-0----3-3-3-3-3-3--3-3-3-3-3-3--3-3---2-2-------------------
d--0-0 0-0-0-0----3-3-3-3-3-3---------------3-3---2-2-------------------

repeat x4

Verse

e-----------------------------------------------------------------------
g---6-6-6-6-6-6-6-6--------------------4-4-4-4-4-4-4-4------------------
b---7-7-7-7-7-7-7-7--------------------5-5-5-5-5-5-5-5------------------
d---7-7-7-7-7-7-7-7--7-7-7-7-7-7-7-7-- 5-5-5-5-5-5-5-5--5-5-5-5-5-5-5-5-
a---5-5-5-5-5-5-5-5--7-7-7-7-7-7-7-7---3-3-3-3-3-3-3-3--5-5-5-5-5-5-5-5-
d--------------------7-7-7-7-7-7-7-7--------------------5-5-5-5-5-5-5-5-

Thats pretty much the whole song.
If you like music like StainD or Tantric then you would definetly love this 
song.
     
Добавлено: 31.08.2013
Другие материалы по этой песне:
  • Аккорды и текст

Страница создана 30.08.2013
http://primanota.ru/ridged-conslusion/liftaway-chords.htm
Привет, Гость.
Предлагаем пройти революционный курс по гитаре.
Подарок от PrimaNota.Ru, забирай!