PrimaNota.ru - самый крупный в мире бесплатный архив песенных текстов, аккордов, табулатур и нот


Rides Again - Infected - таба, видео

Регистрация Запомнить меня
Войти через:  Facebook Google Twitter Vk Yandex Mail.ru

Rides Again - Infected - таба, видео

Печатать
Просмотров: 101
As recorded by Rides Again
                      (From the 2007 Album INTO EXISTENCE)

Transcribed by Roy Morris
rmorris@finalhour.ca

Gtr (Db Ab Db Gb Bb Eb) 



Intro Riff x 2    
|---------------------------------------------------------------------|
|---------------------------------------------------------------------|
|---------------------------------------------------------------------|
|------------------------------3b3.5r=================================|
|-------3-----5----------3-----------------3-----5---5-3-0-3-2-0------|
|-0-3-5---5-3---3--0-3-5---5-3-------0-3-5---5-3---3-------------3----|

Verse - Just listen and repeat.
|------|
|-6----|
|-7----|
|-7----|
|-5----|
|------|


|---------------------------------|-----------------|----------------------|
|---------------------------------|-----------------|----------------------|
|---------------------------------|-----------------|----------------------|
|-3-3-3-3-3-3-3-5-5-5-5-5-5-5-5-5-|-----------------|-------------3b3.5r===|
|-1-1-1-1-1-1-1-3-3-3-3-3-3-3-3-3-|-------3-----5---|-------3--------------|
|---------------------------------|-0-3-5---5-3---3-|-0-3-5---5-3----------|
Sooner or later .....

|---------------------|----------------------------------|
|---------------------|----------------------------------|
|---------------------|----------------------------------|
|-------------------3-|-3-3-3-3-3-3-3-5-5-5-5-5-5-5-5----|
|-------3-----5-5-3-1-|-1-1-1-1-1-1-1-3-3-3-3-3-3-3-3----|
|-0-3-5---5-3---------|----------------------------------|
                        take it or leave it ...

|-----------------|---------------------|-----------------|---------------|
|-----------------|---------------------|-----------------|---------------|
|-----------------|---------------------|-----------------|---------------|
|-----------------|-------------3b3.5r==|=================|===============|
|-------3-----5---|-------3-------------|-----3-----5---5-|-3-0-3-2-0-----|
|-0-3-5---5-3---3-|-0-3-5---5-3-------0-|-3-5---5-3---3---|-----------3---|
Infected ...

Bridge ...
|-----------------------------------|----------------------------------|
|-----------------------------------|----------------------------------|
|-----------------------------------|----------------------------------|
|-------------------------5-5-5-5---|-------------------------5-5-5-5--|
|-5-5-5-5-8-8-8-8-3-3-3-3-3-3-3-3---|-5-5-5-5-8-8-8-8-3-3-3-3-3-3-3-3--|
|-5-5-5-5-8-8-8-8-3-3-3-3---------0-|-5-5-5-5-8-8-8-8-3-3-3-3----------|


Добавлено: 04.04.2012
Другие материалы по этой песне:

Страница создана 04.04.2012
http://primanota.ru/rides-again/infected-chords.htm
Привет, Гость.
Предлагаем пройти революционный курс по гитаре.
Подарок от PrimaNota.Ru, забирай!