PrimaNota.ru - самый крупный в мире бесплатный архив песенных текстов, аккордов, табулатур и нот


Ride - Making Judy Smile - текст песни, таба, видео

Регистрация Запомнить меня
Войти через:  Facebook Google Twitter Vk Yandex Mail.ru

Ride - Making Judy Smile - текст песни, таба, видео

Печатать
Просмотров: 86
Song: Making Judy Smile
Artist: Ride
Album: Going Blank Again
As tabbed by Tim Dery

Let's hear it for British Bands! 

The main thing I was going for in this tab was the
solo, because it's fun. 
Since I was at it so long, I pretty much got the rest
of the song as well, so here goes:


Bass Opener
          
E--0-2-2-0h2-2


Lead Fill 1

e------------
B------------
G-------6h9--
D--6h9-------
A------------
E------------

Rhythm Opener

e---------------
B---------------
G---9----11-----
D---9----11-----
A---7----9------
E--(0)----------


Verse
                             (Lead Fill 1)
e-----------7---------------
B-----------7---(9)---------
G-----------8----9--8---3---
D-(4)-(8)---9----9--9---4---
A-----------9----7--6---4---
E-(2)-(6)---7-----------2---

Chorus

e--4---(2)---   X2
B--5----4----
G--6----4----
D--6----4----
A--4----2----
E------------

E--4-----------7---------------
B--5-----------7---------------
G--6---3---9---8---------------
D--6---4---9---9---------------
A--4---4---7---9---------------
E------2---0---7---------------

Play Chorus Again

Bass Opener/Lead Fill 1/Rhythm Opener

SOLO TIME!
(Octaves = Fun)

E------------------------------------------------
B------------------------------------------------
G-----3--4--8--(8)b9r8--6--4--3--3h4p3-----------
D--4------------------------------------4--2-----
A-----1--2--6--(6)b7r6--4--2--1---------------4--
E--2---------------------------------------------

                          Bass Fill
E------------------------      ---------
B------------------------      ---------
G--3--6--8--8--9--8--6---      ---------
D------------------------      -----2h4-
A--1--4--6--6--7--6--4---      -2h4-----
E------------------------      ---------


E-----------------------------------------------------
B-----(8)b9r8\4-3----3h4p3----------------------------
G-----------------4--------4-2----------16---13---11--
D------------------------------4----------------------
A--2------------------------------------14---11---9---
E-----------------------------------------------------

Chorus

e--4---(2)---   X2
B--5----4----
G--6----4----
D--6----4----
A--4----2----
E------------

E--4-----------7---------------
B--5-----------7---------------
G--6---3---9---8---------------
D--6---4---9---9---------------
A--4---4---7---9---------------
E------2---0---7---------------

I hope I'm making Judy Smile!

Cheers!
http://www.rideox4.com/
http://homepage.mac.com/aaront/ride/old/ride/lyrics.html
     
Добавлено: 03.06.2013
Другие материалы по этой песне:
  • Аккорды и текст

Страница создана 03.03.2012
http://primanota.ru/ride/making-judy-smile-chords.htm
Привет, Гость.
Предлагаем пройти революционный курс по гитаре.
Подарок от PrimaNota.Ru, забирай!