PrimaNota.ru - самый крупный в мире бесплатный архив песенных текстов, аккордов, табулатур и нот


Ride - I Dont Know - аккорды и текст, таба, видео

Регистрация Запомнить меня
Войти через:  Facebook Google Twitter Vk Yandex Mail.ru

Ride - I Dont Know - аккорды и текст, таба, видео

Печатать
Просмотров: 161
I Dont Know
Ride


From: ducasse@ensisun.imag.fr (Denis Ducasse)

                   --- I don't know where it comes from ---

                                                                 RIDE
                                                                 album: Carnival Of Light
It's the last song of the last album of RIDE.
Enjoy it...

(to contact me: denis.ducasse@ensisun.imag.fr)

     -------------------------------------------------------------------------------

----------
----------
----------
-----2/4--
-2/4------
----------


E                                    D
There's something moving ...

D                    A
Years ago, it ...

A                                E
If people feel it, ...

E                           D
Seems like ...

D                             A
A piece is missing ...

A                                 E
They're never going to ...


Chorus:

E                          D
I don't know where ...

E                     A
I don't know ...

E                          D
I don't know ...

D
Don't ask me where it ...


E                   D 
Turned on my ...

D                          A
And I was ...

A                             E
I got so numb I ...

E                          D
What's going on, ...

D                      A
How is it ...

A                                E
We're so uptight, we ....


(and now, play the chorus twice then the solo begins with:
Don't ask me where it COMES from       at the second time)
                      ^
solo:

----------------------------------------10-----------7-------------------------------10-
----12-------------------------------------13-10-------10-7--------------------10-------
-13----13-11-------------14----14-10/11----------7/8--------4/9-9-9-7-9-----------11----
-------------14-11-14-11----11------------------------------------------9-9/11----------
----------------------------------------------------------------------------------------
----------------------------------------------------------------------------------------

--------------------------------------------------10------------------------------------
----13----10-------12-10------9----------------10------------10-12----------------------
-11----11----------------11-9-----------129-9-------9-8-8-8---------9------------------
-------------12/13--------------9-10-11----------------------------9--------------------
-------------------------------------------------------------------------------7-7------
-----------------------------------------------------------------------5/7-9-9-----5/9--

-----------------------------------------------
-----------------------------------------------
---------------------8-8-8-6-6-6-9-9-9-8-8-8-9-
-----7-----------------------------------------
-7-9---9-7-5-5-----5---------------------------
---------------5/7-----------------------------


That's all folks...

I don't know where it comes from by Ride - released in the UK late 1994
Compiled by Nick Clarke (N.J.Clarke@bnr.co.uk)


Добавлено: 26.02.2014
Другие материалы по этой песне:
  • Аккорды и текст

Страница создана 19.06.2012
http://primanota.ru/ride/i-dont-know-chords.htm
Привет, Гость.
Предлагаем пройти революционный курс по гитаре.
Подарок от PrimaNota.Ru, забирай!