PrimaNota.ru - самый крупный в мире бесплатный архив песенных текстов, аккордов, табулатур и нот


Ride - Birdman - таба, видео

Регистрация Запомнить меня
Войти через:  Facebook Google Twitter Vk Yandex Mail.ru

Ride - Birdman - таба, видео

Печатать
Просмотров: 70
Birdman By Ride. Tabbed by manualex

In E standard


         EADGBe
D9      (xx0230)
G       (320033)
Dm      (022000)
C       (x32010)/(xx2010)
A       (x0222x)
A#/F    (xx333x)

Intro 0:18-0:24

E|-------------------------------------|
B|-------------------------------------|
G|-------------------------------10/12-|
D|-------10-12-10h12p10----------10/12-|
A|-10h12----------------10/12-10-------|
E|-------------------------------------|

0:25-1:04
E|-------------------------------------------------------------------|
B|-------------------------------------------------------------------|
G|-------------------------------------------------------10/12-------|
D|-------10-12b-10h12p10------10-12----10h12p10----------10/12-------|
A|-10h12----------------10h12-------------------10h12-10-------------|
E|-------------------------------------------------------------------|

Riff(x4 times)


E|-0-1p0-0-0-----------3-|
B|-2-----3-1-2-3-2-3-2-3-|
G|-3-----2-0-2---------0-|
D|-0-----2-2-2---------0-|
A|---------3-0---------2-|
E|---------------------3-|

Stop playing for this verse

Blackbird flying in the sky
Please don't look me in the eye
You are very very lucky
It's never easy to find me


Then you play

      D9                      Dm
The winter's coming now you've grown
The cold will numb you to the bone
It cuts you through so that you know
             D9             Dm
E|-------------0-------------1-------|
B|---------3-----3---3-----3---3---3-|
G|-------2---2-----2-----2-------2---|
D|-----0---------------0-------------|
A|-3h5-------------------------------|
E|-----------------------------------|

A          C                 D9 C G D9 C G
 In pain the minutes go so slow


E|--0-0-1p0-0-0--3--0-0-3-|
B|2-1-3-----3-1--3--3-1-3-|
G|2-0-2-----2-0--0--2-0-0-|
D|2-2-0-----2-2--0--0-2-0-|
A|0-3---------3--2----3-2-|
E|---------------3------3-|
D9                      Dm
Your soul and mine will carry on
When this transparent world is gone
There's nothing strange in what I say
It's always meant to be this way
Power streams where love is strong
Energy converting, never gone
There's never going to be an end

Continue trugh this verse with the arpeggio of D9 and Dm without the hammer on


             D9             Dm
E|-------------0-------------1-------|
B|---------3-----3---3-----3---3---3-|
G|-------2---2-----2-----2-------2---|
D|-----0---------------0-------------|
A|-----------------------------------|
E|-----------------------------------|

A          C                 D9 C G D9 C G
  A million atoms can't pretend


E|--0-0-1p0-0-0--3--0-0-3-|
B|2-1-3-----3-1--3--3-1-3-|
G|2-0-2-----2-0--0--2-0-0-|
D|2-2-0-----2-2--0--0-2-0-|
A|0-3---------3--2----3-2-|
E|---------------3------3-|

G            C         Em
Until the cold ground swallows me
Me and Ide, go running free
Then we'll change, not disappear

G            C          D9
All channels receiving loud and clear

And now an arppegio of G C and D9

E|---0-----0-------0-----0-------0-----0-----|
B|-----3-----3-------6-----6-------8-----8---|
G|-------2-----2/5-----5-----5/7-----7-----7-|
D|-0-----------------------------------------|
A|-------------------------------------------|
E|-------------------------------------------|

Back to the riff(x4times)

E|-0-1p0-0-0-----------3-|
B|-2-----3-1-2-3-2-3-2-3-|
G|-3-----2-0-2---------0-|
D|-0-----2-2-2---------0-|
A|---------3-0---------2-|
E|---------------------3-|

after that

E|---------0-0-0---0---0-|
B|---------3-1-1-3-1-3-3-|
G|---------2-0-0-3-0-3-2-|
D|-0-0-0-0-0-2-2-3-2-3-0-|
A|-----------------------|
E|-----------------------|

And for the final of the song play D9 C and G
Добавлено: 24.11.2013
Другие материалы по этой песне:
  • Аккорды и текст

Страница создана 24.11.2013
http://primanota.ru/ride/birdman-chords.htm
Привет, Гость.
Предлагаем пройти революционный курс по гитаре.
Подарок от PrimaNota.Ru, забирай!