PrimaNota.ru - самый крупный в мире бесплатный архив песенных текстов, аккордов, табулатур и нот


Riddlin Kids - Stop The World - текст песни, таба, видео

Регистрация Запомнить меня
Войти через:  Facebook Google Twitter Vk Yandex Mail.ru

Riddlin Kids - Stop The World - текст песни, таба, видео

Печатать
Просмотров: 158
Standard Tuning

Intro
PM{=============================================}
e|-----------------------------------------------|
B|-----------------------------------------------|
G|--------------------------------------------66-|
D|-3/444x22x33x4444x22x33x4444x22x33x44x22x77x66-|
A|-3/444x22x33x4444x22x33x4444x22x33x44x22x77x44-|
E|-1/222x00x11x2222x00x11x2222x00x11x22x00x55x---|

Verse
e|-----------------------------------------------|
B|-----------------------------------------------|
G|---------66x--------66x--------66x-------------|
D|-4444x22x44x4444x22x44x4444x22x44x44x22x77x----|
A|-4444x22x66x4444x22x44x4444x22x44x44x22x77x----|
E|-2222x00x---2222x00x---2222x00x---22x00x55x----|

Chorus
e|---------------------------------------------------------|
B|---------------------------------------------------------|
G|---------99-----------99-----------99-----------99---7-2-|
D|-4x6x7x9x7799-4x6x7x9x7799-4x6x7x9x7799-4x6x7x9x7799-7-2-|
A|-4x6x7x9x7777-4x6x7x9x7777-4x6x7x9x7777-4x6x7x9x7777-5-0-|
E|-2x4x5x7x--77-2x4x5x7x--77-2x4x5x7x--77-2x4x5x7x--77-----|

Fill
e|-------9---------9---------9---------9----|
B|-5-7p5---7-5-7p5---7-5-7p5---7-5-7p5---77-|
G|------------------------------------------|
D|------------------------------------------|
A|------------------------------------------|
E|------------------------------------------|
Добавлено: 29.09.2013
Другие материалы по этой песне:
  • Аккорды и текст

Страница создана 25.04.2012
http://primanota.ru/riddlin-kids/stop-the-world-chords.htm
Привет, Гость.
Предлагаем пройти революционный курс по гитаре.
Подарок от PrimaNota.Ru, забирай!