PrimaNota.ru - самый крупный в мире бесплатный архив песенных текстов, аккордов, табулатур и нот


Riddlin Kids - I Want You To Know - таба, видео

Регистрация Запомнить меня
Войти через:  Facebook Google Twitter Vk Yandex Mail.ru

Riddlin Kids - I Want You To Know - таба, видео

Печатать
Просмотров: 53
-------------------------------------------------------------------------------
			     i want you to know - riddlin kids
-------------------------------------------------------------------------------
Tabbed by: TheTroy
Tuning: Standard

intro guitar 1
e|---------------------------------------------------------------------------|
B|---------------------------------------------------------------------------|
G|-5-55-xxxx-5-55-xxxx-5-55-xxxx-5-55-xxxx-----------------------------------|
D|-5-55-xxxx-5-55-xxxx-5-55-xxxx-5-55-xxxx-3-33-xxxx-3-33-xxxx-3-33-xxxx-----|
A|-3-33-xxxx-3-33-xxxx-3-33-xxxx-3-33-xxxx-3-33-xxxx-3-33-xxxx-3-33-xxxx-----|
E|-3-33-xxxx-3-33-xxxx-3-33-xxxx-3-33-xxxx-1-11-xxxx-1-11-xxxx-1-11-xxxx-----|

intro guitar 2
e|---------------------------------------------------------------------------|
B|-1-1-0-1-3-1-0-1-1-1-0-1-3-1-0-1-1-1-0-1-3-1-0-1-1-1-0-1-1-1-1-1-0-1-------|
G|---------------------------------------------------------------------------|
D|---------------------------------------------------------------------------|
A|---------------------------------------------------------------------------|
E|---------------------------------------------------------------------------|
   . . . . . . . . . . . . . . . . . . . . . . . . . . . . . . . 

verse guitar 1
e|----------------------------------------------------------------|--|-------|
B|----------------------------------------------------------------|--|-------|
G|----------------------------------------------------------------|--|-------|
D|-5-5-5-5-5-5-5-5------------------------------------------------|X2|-------|
A|-3-3-3-3-3-3-3-3-5-5-5-5-5-5-5-5-7-7-7-7-7-7-7-7-3-3-3-3-5-5-5-5|--|-------|
E|-----------------3-3-3-3-3-3-3-3-5-5-5-5-5-5-5-5-1-1-1-1-3-3-3-3|--|-------|
   . . . . . . . . . . . . . . . . . . . . . . . . . . . . . . . . 

e|---------------------------------------------------------------------------|
B|---------------------------------------------------------------------------|
G|---------------------------------------------------------------------------|
D|---------------------------------------------------------------------------|
A|-7-7-7-7-7-7-7-7-3-3-3-3-5-5-5-5-7-7-7-7-7-7-7-7-3-3-3-3-5-5-5-5-----------|
E|-5-5-5-5-5-5-5-5-1-1-1-1-3-3-3-3-5-5-5-5-5-5-5-5-1-1-1-1-3-3-3-3-----------|
   . . . . . . . . . . . . . . . . . . . . . . . . . . . . . . . .
e|---------------------------------------------------------------------------|
B|---------------------------------------------------------------------------|
G|---------------------------------------------------------------------------|
D|---------------------------------------------------------------------------|
A|-3-3-3-3-3-3-3-3-3-3-3-3-3-3-3-3-5-5-5-5-5-5-5-5-5-5-5-5-5-5-5-5-----------|
E|-1-1-1-1-1-1-1-1-1-1-1-1-1-1-1-1-3-3-3-3-3-3-3-3-3-3-3-3-3-3-3-3-----------|
   . . . . . . . . . . . . . . . . . . . . . . . . . . . . . . . . 

guitar 2 verse
e|---------------------------------------------------------------------------|
B|-3-1---3-1---3-1-----------------------------------------------------------|
G|-----0-----0---------------------------------------------------------------|
D|---------------------------------------------------------------------------|
A|---------------------------------------------------------------------------|
E|---------------------------------------------------------------------------|

chorus
e|---------------------------------------------------------------------------|
B|---------------------------------------------------------------------------|
G|-5-5-5-5-5-5-5-5-5-5-5-5-5-5-5-5-------------------------------------------|
D|-5-5-5-5-5-5-5-5-5-5-5-5-5-5-5-5-5-5-5-5-5-5-5-5-5-5-5-5-5-5-5-5-----------|
A|-3-3-3-3-3-3-3-3-3-3-3-3-3-3-3-3-5-5-5-5-5-5-5-5-5-5-5-5-5-5-5-5-----------|
E|---------------------------------3-3-3-3-3-3-3-3-3-3-3-3-3-3-3-3-----------|

e|---------------------------------------------------------------------------|
B|---------------------------------------------------------------------------|
G|---------------------------------------------------------------------------|
D|-7-7-7-7-7-7-7-7-7-7-7-7-7-7-7-7-3-3-3-3-3-3-3-3-3-3-3-3-3-3-3-3-----------|
A|-7-7-7-7-7-7-7-7-7-7-7-7-7-7-7-7-3-3-3-3-3-3-3-3-3-3-3-3-3-3-3-3-----------|
E|-5-5-5-5-5-5-5-5-5-5-5-5-5-5-5-5-1-1-1-1-1-1-1-1-1-1-1-1-1-1-1-1-----------|

chorus guitar 2
e|---8---8-------------------------------------------------------------------|
B|-----8---------------------------------------------------------------------|
G|-9-------------------------------------------------------------------------|
D|---------------------------------------------------------------------------|
A|---------------------------------------------------------------------------|
E|---------------------------------------------------------------------------|

repeat intro with small variation

repeat verse

repeat chorus

bridge
e|---------------------------------------------------------------------------|
B|---------------------------------------------------------------------------|
G|-5-55-xxxx-5-55-xxxx5-55-xxxx-5-55-----------------------------------------|
D|-5-55-xxxx-5-55-xxxx5-55-xxxx-5-55-xxxx-3-33-xxxx-3-33-xxxx-3-33-xxxx------|
A|-3-33-xxxx-3-33-xxxx3-33-xxxx-3-33-xxxx-3-33-xxxx-3-33-xxxx-3-33-xxxx------|
E|-3-33-xxxx-3-33-xxxx3-33-xxxx-3-33-xxxx-1-11-xxxx-1-11-xxxx-1-11-xxxx------|

e|---------------------------------------------------------------------------|
B|---------------------------------------------------------------------------|
G|---------------------------------------------------------------------------|
D|-3-33-xxxx-7-77-xxxx-7-77-xxxx-7-77-xxxx-7-77-xxxx-3-33-xxxx-3-33-xxxx-----|
A|-3-33-xxxx-7-77-xxxx-7-77-xxxx-7-77-xxxx-7-77-xxxx-3-33-xxxx-3-33-xxxx-----|
E|-1-11-xxxx-5-55-xxxx-5-55-xxxx-5-55-xxxx-5-55-xxxx-1-11-xxxx-1-11-xxxx-----|

e|---------------------------------------------------------------------------|
B|---------------------------------------------------------------------------|
G|---------------------------------------------------------------------------|
D|-5-55-xxxx-5-55-xxxx-------------------------------------------------------|
A|-5-55-xxxx-5-55-xxxx-------------------------------------------------------|
E|-3-33-xxxx-3-33-xxxx-------------------------------------------------------|

guitar 2 bridge
e|-1-1-3---0-1-0-------------------------------------------------------------|
B|---------------------------------------------------------------------------|
G|---------------------------------------------------------------------------|
D|---------------------------------------------------------------------------|
A|---------------------------------------------------------------------------|
E|---------------------------------------------------------------------------|

repeat end of verse

repeat chorus 

end

| /  slide up
| \  slide down
| h  hammer-on
| p  pull-off
| ~  vibrato
| +  harmonic
| x  Mute note
===============================================================================
Добавлено: 19.07.2013
Другие материалы по этой песне:
  • Аккорды и текст

Страница создана 19.07.2013
http://primanota.ru/riddlin-kids/i-want-you-to-know-chords.htm
Привет, Гость.
Предлагаем пройти революционный курс по гитаре.
Подарок от PrimaNota.Ru, забирай!