PrimaNota.ru - самый крупный в мире бесплатный архив песенных текстов, аккордов, табулатур и нот


Riddlin Kids - Get To It - текст песни, таба, видео

Регистрация Запомнить меня
Войти через:  Facebook Google Twitter Vk Yandex Mail.ru

Riddlin Kids - Get To It - текст песни, таба, видео

Печатать
Просмотров: 77
-------------------------------------------------------------------------------
			     Get To It - Riddlin' Kids
-------------------------------------------------------------------------------
Tabbed by: TheTroy
Tuning: Standard

Intro
e|---------------------------------------------------------------------------|
B|---------------------------------------------------------------------------|
G|-7~7~7~7~7-7--------------------------------7~7~7~7~7-7--------------------|
D|-7~7~7~7~7-7--------------------------------7~7~7~7~7-7--------------------|
A|-5~5~5~5~5-5--------------------------------5~5~5~5~5-5--------------------|
E|-------------5-5-3-3-2-2-3-3-3-5-3-3-2-2-3-3-------------------------------|

e|---------------------------------------------------------------------------|
B|---------------------------------------------------------------------------|
G|---------------------------------------------------------------------------|
D|---------------------------------------------------------------------------|
A|---------------------------------------------------------------------------|
E|-5-5-3-3-2-2-3-3-3-5-3-3-2-2-3-3-------------------------------------------|

Verse (one guitar plays this while the other plays "verse pt. 2")
e|-2-2---2-2---2-2---2-2---2-2---2-2---2-2---2-2---2-2---2-2---2-2-----------|
B|-----3~----3~----3~----3~----3~----3~----3~----3~----3~----3~----3~--------|
G|---------------------------------------------------------------------------|
D|---------------------------------------------------------------------------|
A|---------------------------------------------------------------------------|
E|---------------------------------------------------------------------------|

Verse pt. 2
e|---------------------------------------------------------------------------|
B|---------------------------------------------------------------------------|
G|---------------------------------------------------------------------------|
D|-7-7-7~----------------------------7-7-7~----------------------------------|
A|-5-5-5~-5-5-5~-9-9-9~-5-5-5--5-5-5-5-5-5~-5-5-5~-9-9-9~-5-5-5--5-5-5-------|
E|--------3-3-3~-7-7-7~-3-3-3--3-3-3--------3-3-3~-7-7-7~-3-3-3--3-3-3-------|
   . .    . .    . .    . .    . .   . .    . .    . .    . .    . .
e|---------------------------------------------------------------------------|
B|---------------------------------------------------------------------------|
G|---------------------------------------------------------------------------|
D|-7-7-7-7-7-7-7-7-9-9-9-9-9-9-9-9-11-11-11-11-11-11-11-11-------------------|
A|-5-5-5-5-5-5-5-5-7-7-7-7-7-7-7-7-9--9--9--9--9--9--9--9--------------------|
E|---------------------------------------------------------------------------|

e|---------------------------------------------------------------------------|
B|---------------------------------------------------------------------------|
G|-------------------------9~~~~~~~~-5~~~~5-5-5-5-5-5-5-5--------------------|
D|-12-12-12-12-12-12-12-12-9~~~~~~~~-5~~~~5-5-5-5-5-5-5-5--------------------|
A|-10-10-10-10-10-10-10-10-7~~~~~~~~-3~~~~3-3-3-3-3-3-3-3--------------------|
E|---------------------------------------------------------------------------|

Chorus pt. 1
e|---------------------------------------------------------------------------|
B|---------------------------------------------------------------------------|
G|-7-7-7-7-7-7-7-7-----------------------------------------------------------|
D|-7-7-7-7-7-7-7-7-5-5-5-5-5-5-5-5-9-9-9-9-9-9-9-9---------------------------|
A|-5-5-5-5-5-5-5-5-5-5-5-5-5-5-5-5-9-9-9-9-9-9-9-9---------------------------|
E|-----------------3-3-3-3-3-3-3-3-7-7-7-7-7-7-7-7-5-5-3-3-2-2-3-3-----------|

e|---------------------------------------------------------------------------|
B|---------------------------------------------------------------------------|
G|-7-7-7-7-7-7-7-7-----------------------------------------------------------|
D|-7-7-7-7-7-7-7-7-5-5-5-5-5-5-5-5-9-9-9-9-9-9-9-9---------------------------|
A|-5-5-5-5-5-5-5-5-5-5-5-5-5-5-5-5-9-9-9-9-9-9-9-9---------------------------|
E|-----------------3-3-3-3-3-3-3-3-7-7-7-7-7-7-7-7-5-5-3-3-2-2-3-3-----------|

Chorus pt. 2
e|---------------------------------------------------------------------------|
B|---------------------------------------------------------------------------|
G|-7-7-7-7-7-7-7-7-7-7-7-7-7-7-7-7-------------------------------------------|
D|-7-7-7-7-7-7-7-7-7-7-7-7-7-7-7-7-------------------------------------------|
A|-5-5-5-5-5-5-5-5-5-5-5-5-5-5-5-5-------------------------------------------|
E|---------------------------------5-5-3-3-2-2-3-3-3-5-3-3-2-2-3-3-----------|

e|---------------------------------------------------------------------------|
B|---------------------------------------------------------------------------|
G|-7-7-7-7-7-7-7-7-7-7-7-7-7-7-7-7-------------------------------------------|
D|-7-7-7-7-7-7-7-7-7-7-7-7-7-7-7-7-------------------------------------------|
A|-5-5-5-5-5-5-5-5-5-5-5-5-5-5-5-5-------------------------------------------|
E|---------------------------------5-5-3-3-2-2-3-3-3-5-3-3-2-2-3-3-----------|

Verse two (same as the first)

Chorus pt. 1 X2

Chorus pt. 2

Bridge
e|---------------------------------------------------------------------------|
B|-------------------------------PICK SLIDE----------------------------------|
G|-9~~~~~~~~5~~~~~~~~--7~~~~-----\\\\\\\\\\\\\\\\\\\\\\----------------------|
D|-9~~~~~~~~5~~~~~~~~--7~~~~5~~~~\\\\\\\\\\\\\\\\\\\\\\----------------------|
A|-7~~~~~~~~3~~~~~~~~--5~~~~5~~~~--------------------------------------------|
E|--------------------------3~~~~--------------------------------------------|

Chorus pt. 1 X2

Chorus pt. 2 X2

There you go. THE END


| /  slide up
| \  slide down
| h  hammer-on
| p  pull-off
| ~  vibrato
| +  harmonic
| x  Mute note
===============================================================================
Добавлено: 02.07.2013
Другие материалы по этой песне:
  • Аккорды и текст

Страница создана 23.05.2012
http://primanota.ru/riddlin-kids/get-to-it-chords.htm
Привет, Гость.
Предлагаем пройти революционный курс по гитаре.
Подарок от PrimaNota.Ru, забирай!