PrimaNota.ru - самый крупный в мире бесплатный архив песенных текстов, аккордов, табулатур и нот


Rico Blanco - Come Closer - таба, видео

Регистрация Запомнить меня
Войти через:  Facebook Google Twitter Vk Yandex Mail.ru

Rico Blanco - Come Closer - таба, видео

Печатать
Просмотров: 70
Song: Come Closer
Artist: Rico Blanco
Tabbed by: leipogue
Email: leipogue@yahoo.com

Intro
e|--------12----12--------12----12--------12----12---13----|
B|--13--13----13----12--12----12----13--13----13-----13----|
G|----12----12----12--12----12----12--14----14----12-14----|
D|---------------------------------------------------------|
A|---------------------------------------------------------|
E|---------------------------------------------------------|

C - Em - Am - F

Verse:
        C             Em
I can feel you in the air
        Am                 F
Like a silent breeze embrace me
        C             Em
I can see you everywhere
           Am           F
From the stars to the sea

Chorus:
 C   F                  Am G
Ahoooo..what you do to me
 C   F             Am   G  
Ahoooo..what you mean to me
C Em   Am           F
I cannot wait any longer
C        Em         Am F
Come closer to me now..
C   Em        Am           F
You smile and I simply surrender
C     Em           Am  F
Come closer to me now..

Verse2:
      C               Em
Every little move you make
         Am             F
Sends my heart into a different pace
         C          Em          Am      F
I would gladly dedicate every beat to you

Repeat Chorus

Outro:
e|--------12----12--------12----12-------12----12--------13----13-12-|
B|--13--13----13----12--12----12---13--13----13----13--13----13---13-|
G|----12----12----12--12----12---12--14----14----12--14----14-----12-|
D|-------------------------------------------------------------------|
A|-------------------------------------------------------------------|
E|-------------------------------------------------------------------|
Добавлено: 18.06.2013
Другие материалы по этой песне:
  • Аккорды и текст

Страница создана 18.06.2013
http://primanota.ru/rico-blanco/come-closer-chords.htm
Привет, Гость.
Предлагаем пройти революционный курс по гитаре.
Подарок от PrimaNota.Ru, забирай!