PrimaNota.ru - самый крупный в мире бесплатный архив песенных текстов, аккордов, табулатур и нот


Ricky Montgomery - Last Night - таба, видео

Регистрация Запомнить меня
Войти через:  Facebook Google Twitter Vk Yandex Mail.ru

Ricky Montgomery - Last Night - таба, видео

Печатать
Просмотров: 84
Ricky Montgomery
Song; Last Night 
Album: Caught On The Moon

sorry saw there was nothing on the site and this is all i tabbed out so far :)
intro lead

E|-------------------------------7------------------------------------------------------------------|
A|--------5-7-----10-9-7-5------------------5--7///9---10-9-7-----------5-7---12-10-9-7-5-----------|
D|--4-6-------------------------------4-6--------------------------4-6------------------------------|
G|--------------------------------------------------------------------------------------------------|
B|--------------------------------------------------------------------------------------------------|
E|--------------------------------------------------------------------------------------------------|

E|--------------------------------------------------------------------------------------------------|
A|---------5-7//9--10-9-7-7-------------------------------------------------------------------------|
D|---4-6--------------------------------------------------------------------------------------------|
G|--------------------------------------------------------------------------------------------------|
B|--------------------------------------------------------------------------------------------------|
E|--------------------------------------------------------------------------------------------------|
Добавлено: 02.06.2016
Вам также может быть интересно:
Другие материалы по этой песне:
  • Аккорды и текст

Страница создана 02.06.2016
http://primanota.ru/ricky-montgomery/last-night-chords.htm
Привет, Гость.
Предлагаем пройти революционный курс по гитаре.
Подарок от PrimaNota.Ru, забирай!