PrimaNota.ru - самый крупный в мире бесплатный архив песенных текстов, аккордов, табулатур и нот


Ricky King - Verde - таба, видео

Регистрация Запомнить меня
Войти через:  Facebook Google Twitter Vk Yandex Mail.ru

Ricky King - Verde - таба, видео

Печатать
Просмотров: 149
Title:Verde
Artist:Ricky King

A Smash in Europe at 1976
(http://www.youtube.com/watch?v=juvltQIxQAY)

Tabbed by Fepo

Tuning:Standard




e||--------------------------8---------------------|
H||--8----6---6--8-----6--------6-------------6----|
G||---------9-------------9----------9--7--9-------|
D||------------------------------------------------|
A||------------------------------------------------|
E||------------------------------------------------|

                                                                        
e||--------------------10-------------12-----------|
H||-10---8------8--10------10--9--8------12--10--8-|
G||---------10-------------------------------------|
D||------------------------------------------------|
A||------------------------------------------------|
E||------------------------------------------------|


e||--------------------------8---------------------|
H||--8----6---6--8-----6--------6-------------6----|
G||---------9-------------9----------9--7--9-------|
D||------------------------------------------------|
A||------------------------------------------------|
E||------------------------------------------------|

                                                                        
e||--------------------10-------------12-----------|
H||-10---8------8--10------10--9--8------12--10--8-|
G||---------10-------------------------------------|
D||------------------------------------------------|
A||------------------------------------------------|
E||------------------------------------------------|



e||---------------7--8--10--8----------------------|
H||-8-10-8-10--8---------------10--8---------------|
G||------------------------------------------------|
D||------------------------------------------------|
A||------------------------------------------------|
E||------------------------------------------------|


e||---------------7--7----10--13--12--10-10-8-7-8--|
H||-8-10-8-10--8-----------------------------------|
G||------------------------------------------------|
D||------------------------------------------------|
A||------------------------------------------------|
E||------------------------------------------------|


e||--12--10--------------10------------------------|
H||----------13--13--12------12--12--10------------|
G||--------------------------------------12--------|
D||------------------------------------------------|
A||------------------------------------------------|
E||------------------------------------------------|

e||--------------------------8---------------------|
H||--8----6---6--8-----6--------6-------------6----|
G||---------9-------------9----------9--7--9-------|
D||------------------------------------------------|
A||------------------------------------------------|
E||------------------------------------------------|

                                                                        
e||--------------------10-------------12-----------|
H||-10---8------8--10------10--9--8------12--10--8-|
G||---------10-------------------------------------|
D||------------------------------------------------|
A||------------------------------------------------|
E||------------------------------------------------|


e||---------------7--8--10--8----------------------|
H||-8-10-8-10--8---------------10--8---------------|
G||------------------------------------------------|
D||------------------------------------------------|
A||------------------------------------------------|
E||------------------------------------------------|


e||---------------7--7----10--13--12--10-10-8-7-8--|
H||-8-10-8-10--8-----------------------------------|
G||------------------------------------------------|
D||------------------------------------------------|
A||------------------------------------------------|
E||------------------------------------------------|


e||--12--10--------------10-----------------------|
H||----------13--13--12------12--12--10-----------|
G||--------------------------------------12-------|
D||-----------------------------------------------|
A||-----------------------------------------------|
E||-----------------------------------------------|



e||------------------------9-----------------------|
H||-9--7------7--9---7--------7-------------7------|
G||-------10------------10-------10--9--10---------|
D||------------------------------------------------|
A||------------------------------------------------|
E||------------------------------------------------|



e||----------------11------------13----------------|
H||-11-9----9--11-----11--10--9------13--11-9h11p9-|
G||-------11---------------------------------------|
D||------------------------------------------------|
A||------------------------------------------------|
E||------------------------------------------------|


e||------------------------9-----------------------|
H||-9--7------7--9---7--------7-------------7------|
G||-------10------------10-------10--9--10---------|
D||------------------------------------------------|
A||------------------------------------------------|
E||------------------------------------------------|



e||----------------11------------13----------------|
H||-11-9----9--11-----11--10--9------13--11-9h11p9-|
G||-------11---------------------------------------|
D||------------------------------------------------|
A||------------------------------------------------|
E||------------------------------------------------|


e||------------------------9-----------------------|
H||-9--7------7--9---7--------7-------------7------|
G||-------10------------10-------10--9--10---------|
D||------------------------------------------------|
A||------------------------------------------------|
E||------------------------------------------------|

                                                                        
e||----------------11------------13----------------|
H||-11-9----9--11-----11--10--9------13--11-9------|
G||-------11---------------------------------------|
D||------------------------------------------------|
A||------------------------------------------------|
E||------------------------------------------------|


Play the last two to fade out 

Have Fun
Добавлено: 11.07.2015
Другие материалы по этой песне:
  • Аккорды и текст

Страница создана 11.07.2015
http://primanota.ru/ricky-king/verde-chords.htm
Привет, Гость.
Предлагаем пройти революционный курс по гитаре.
Подарок от PrimaNota.Ru, забирай!