PrimaNota.ru - самый крупный в мире бесплатный архив песенных текстов, аккордов, табулатур и нот


Ricky Hil - Nomads - таба, видео

Регистрация Запомнить меня
Войти через:  Facebook Google Twitter Vk Yandex Mail.ru

Ricky Hil - Nomads - таба, видео

Печатать
Просмотров: 114
Artist:         Ricky Hil ft. The Weeknd
Song:           Nomads
Tabbed by:      neuroxik
Email:          neuroxik [-at] gmail [dot-] com
Tuning:         Standard (EADGBe)


This is the main riff played out through the song. I've tabbed it from the
intro.

Elec. Gtr (clean, probably neck pickup) with the following effects:
Phaser (or Flanger or Chorus, not sure), w/ Delay Echo set at every beat 
        (every half note) at 120 bpm with a fairly good mix of "wet"

Let ring

          *
e|--------------1---------|--------------3----------|--------------1---------|
B|--------3-------------1-|--------1--------------3-|--------3-------------1-|
G|-----2-------------2----|-----2--------------0----|-----3-------------3----|
D|--0--------0----0-------|-------------------------|------------------------|
A|------------------------|--3--------3-----3-------|--1--------1-----1------|
E|------------------------|-------------------------|------------------------|

                                                                 [*2]
e|--------------1-----------|--------------1-------|--1-----------0----------|
B|--------1-----------1--3--|--------3--------3----|-----1-----1-------------|
G|-----3--------------------|--2--------2--------2-|--------2-------------(0)|
D|--------------------------|-----0----------------|-------------------------|
A|--3--------3----(3)-------|----------------------|--3----------(3)---(3)---|
E|--------------------------|----------------------|-------------------------|


   [*2]       [*3]         [*2]       [*4]
e|-------------1---------|----------0--0-----------||-----------------------||
B|--3-----------------3--|-------------1-----------||-----------------------||
G|--3--------------------|-------3-----2-----------||--- Repeat simile -----||
D|----------3------------|--3----------------------||--- throughout    -----||
A|-(1)---1---------------|-------------------------||-----------------------||
E|-----------------------|-------------------------||-----------------------||

* Here you'll hear the D note on 2nd string (position 3) repeated as an echo
  but it's the delay working there, not plucked.

[*2] Let ring for 1 full beat (equivalence of 2 notes)
[*3] Let ring for 1½ beat (equivalent to 3 notes)
[*4] Let ring for 2 full beats (equivalent to 4 notes)
Добавлено: 03.11.2013
Другие материалы по этой песне:
  • Аккорды и текст

Страница создана 03.11.2013
http://primanota.ru/ricky-hil/nomads-chords.htm
Привет, Гость.
Предлагаем пройти революционный курс по гитаре.
Подарок от PrimaNota.Ru, забирай!