PrimaNota.ru - самый крупный в мире бесплатный архив песенных текстов, аккордов, табулатур и нот


Rick Springfield - Light This Party Up - таба, видео

Регистрация Запомнить меня
Войти через:  Facebook Google Twitter Vk Yandex Mail.ru

Rick Springfield - Light This Party Up - таба, видео

Печатать
Просмотров: 54
LIGHT THIS PARTY UP

This is Light This Party Up the single from Rick's new album Rocket Science
I'm still working on this I just figured out how to play this so there are a few blank spaces in the tab 
those are parts I'm still working out I will fill them in once I get them this is what I have so far.

E|-----------------------------------------------------------------|
B|----------0--------------0--------------0--------------0---------|
G|--5/7--5--0------5/7--5--0------5/7--5--0------5/7--5--0---------|
D|--5/7--5---------5/7--5---------5/7--5---------5/7--5------------|
A|-----------------------------------------------------------------|
E|-----------------------------------------------------------------|

E|----------------------------------------------------------------------|
B|----------0-------------------0--------------0------------0-----------|
G|--5/7--5--0-----------5/7--5--0------5/7--5--0----5/7--5--0-----------|
D|--5/7--5--------------5/7--5---------5/7--5-------5/7--5--------------|
A|----------------------------------------------------------------------|
E|----------------------------------------------------------------------|
    SOMETIMES MY LIFE   ONE LONG FALL  I CHASE MY   I WAS GETTING WEARY
    FEELS LIKE          FROM GRACE     DREAMS       FROM THE CHASE      

E|-----------------------------------------------------|
B|-----------------------------------------------------|
G|------5--5-------------------------------------------|
D|--5---5--5---5-------------------------3---3---------|
A|--5---3--3---5-------------------------3---3---------|
E|--3----------3-------------------------1---1---------|
   I HELD AN ANGEL'S HAND AND I FELT THE DEVIL'S BITE

E|-----------------------------------------|
B|----------0--------------------0---------|
G|--5/7--5--0------------5/7--5--0---------|
D|--5/7--5---------------5/7--5------------|
A|-----------------------------------------|
E|-----------------------------------------|

E|------------------------------------------------------------------|
B|------------------------------------------------------------------|
G|------7--7--------------------------------------------------------|
D|--7---7--7---7----------------------------------------------------|
A|--7---5--5---7----------------------------------------------------|
E|--5----------5----------------------------------------------------|
  NOW I TAKE MY REGRETS AND BURN EM DOWN THE FUTURE'S LOOKIN BRIGHT 
                                                  LET'S LIGHT IT UP

E|------------------------------------------------------------------|
B|------------------------------------------------------------------|
G|--7-7-7--7-7-7------------------5-5-5-----------7-7-7-7-----------|
D|--7-7-7--7-7-7---5-5-5--5-5-5---5-5-5---5-5-5---7-7-7-7---7--5----|
A|--5-5-5--5-5-5---5-5-5--5-5-5---3-3-3---5-5-5---5-5-5-5---7--5----|
E|-----------------3-3-3--3-3-3-----------3-3-3-------------5--3----|
    WE LIGHT THIS  YOU BETTER     WE LIGHT THIS PARTY UP
    PARTY UP       BUCKLE UP

E|----------------------------------------------------------------|
B|----------------------------------------------------------------|
G|--7-7-7--7-7-7--------------------5-5-5-----------7-------------|
D|--7-7-7--7-7-7-----5-5-5--5-5-5---5-5-5---5-5-5---7-------------|
A|--5-5-5--5-5-5-----5-5-5--5-5-5---3-3-3---5-5-5---5-------------|
E|-------------------3-3-3--3-3-3-----------3-3-3-----------------|
    GIVE YOU A KISS  LOVE IS THE    WE LIGHT THIS PARTY UP
    FOR LUCK         DEEPEST CUT

E|-----------------------------------------|
B|----------0--------------------0---------|
G|--5/7--5--0------------5/7--5--0---------|
D|--5/7--5---------------5/7--5------------|
A|-----------------------------------------|
E|-----------------------------------------|

E|-------------------------------------------------------------------------|
B|----------0-------------------0--------------0---------------0-----------|
G|--5/7--5--0-----------5/7--5--0------5/7--5--0-------5/7--5--0-----------|
D|--5/7--5--------------5/7--5---------5/7--5----------5/7--5--------------|
A|-------------------------------------------------------------------------|
E|-------------------------------------------------------------------------|
    I GIVE YOU LOVE     ALL I'VE GOT   NO TIME FOR     GOT THIS ONE
    CAUSE THAT'S        LEFT TO GIVE   TEARS WE JUST   LIFE TO LIVE

E|-----------------------------------------------------|
B|-----------------------------------------------------|
G|------5--5-------------------------------------------|
D|--5---5--5---5-------------------------3---3---------|
A|--5---3--3---5-------------------------3---3---------|
E|--3----------3-------------------------1---1---------|
    I TELL THE TRUTH        IT'S TIME TO COWBOY UP

E|------------------------------------------------------------------|
B|------------------------------------------------------------------|
G|------7--7--------------------------------------------------------|
D|--7---7--7---7----------------------------------------------------|
A|--7---5--5---7----------------------------------------------------|
E|--5----------5----------------------------------------------------|
    NO ONE GETS A FREE RIDE LIFE IS A MYSTERY DRINK FROM THAT LOVING CUP
                                                    AND LIGHT IT UP

E|--------------------------------------------------------------------|
B|--------------------------------------------------------------------|
G|--7-7-7--7-7-7--------------------5-5-5-----------7-7-7-------------|
D|--7-7-7--7-7-7---5-5-5--5-5-5-----5-5-5---5-5-5---7-7-7-----7--5----|
A|--5-5-5--5-5-5---5-5-5--5-5-5-----3-3-3---5-5-5---5-5-5-----7--5----|
E|-----------------3-3-3--3-3-3-------------3-3-3-------------5--3----|
    WE LIGHT THIS  YOU RAISE        WE LIGHT THIS PARTY UP
    PARTY UP       YOUR PARTY CUP

E|----------------------------------------------------------------|
B|----------------------------------------------------------------|
G|--7-7-7--7-7-7--------------------5-5-5-----------7-------------|
D|--7-7-7--7-7-7-----5-5-5--5-5-5---5-5-5---5-5-5---7-------------|
A|--5-5-5--5-5-5-----5-5-5--5-5-5---3-3-3---5-5-5---5-------------|
E|-------------------3-3-3--3-3-3-----------3-3-3-----------------|
    GIVE YOU A KISS  LOVE IS THE    WE LIGHT THIS PARTY UP
    FOR LUCK         DEEPEST CUT

GUITAR SOLO

E|----------------------------------------------------------------------|
B|----------------------------------------------------------------------|
G|----------------------------------------------------------------------|
D|----------------------------------------------------------------------|
A|----------------------------------------------------------------------|
E|----------------------------------------------------------------------|

E|----------------------------------------------------------------------|
B|----------------------------------------------------------------------|
G|----------------------------------------------------------------------|
D|----------------------------------------------------------------------|
A|----------------------------------------------------------------------|
E|----------------------------------------------------------------------|
  COME ON NOW AIN'T NO DOUBT  DON'T KEEP YOUR PRETTY LITTLE MOUTH SHUT 
  SHOUT IT OUT                                       LIGHT IT UP

E|----------------------------------------------------------------------|
B|----------------------------------------------------------------------|
G|----------------------------------------------------------------------|
D|----------------------------------------------------------------------|
A|----------------------------------------------------------------------|
E|----------------------------------------------------------------------|
   WE LIGHT THIS PARTY UP LOVE IS THE DEEPEST CUT OOH YEAH

E|--------------------------------------------------------------------|
B|--------------------------------------------------------------------|
G|--7-7-7--7-7-7--------------------5-5-5-----------7-7-7-------------|
D|--7-7-7--7-7-7-----5-5-5--5-5-5---5-5-5---5-5-5---7-7-7---7--5------|
A|--5-5-5--5-5-5-----5-5-5--5-5-5---3-3-3---5-5-5---5-5-5---7--5------|
E|-------------------3-3-3--3-3-3-----------3-3-3-----------5--3------|
    WE LIGHT THIS    LOVE IS THE    WE LIGHT THIS PARTY UP
    PARTY UP         DEEPEST CUT

E|------------------------------------------------------------------|
B|------------------------------------------------------------------|
G|--7-7-7--7-7-7--------------------5-5-5-----------7-7-7-----------|
D|--7-7-7--7-7-7-----5-5-5--5-5-5---5-5-5---5-5-5---7-7-7--7--5-----|
A|--5-5-5--5-5-5-----5-5-5--5-5-5---3-3-3---5-5-5---5-5-5--7--5-----|
E|-------------------3-3-3--3-3-3-----------3-3-3----------5--3-----|
    GIVE YOU A KISS  LOVE IS THE    WE LIGHT THIS PARTY UP
    FOR LUCK         DEEPEST CUT

E|---------------------------------------------------------------------|
B|---------------------------------------------------------------------|
G|--7-7-7--7-7-7---------------------5-5-5-----------7-7-7-------------|
D|--7-7-7--7-7-7-----5-5-5--5-5-5----5-5-5---5-5-5---7-7-7---7--5------|
A|--5-5-5--5-5-5-----5-5-5--5-5-5----3-3-3---5-5-5---5-5-5---7--5------|
E|-------------------3-3-3--3-3-3------------3-3-3-----------5--3------|
    WE LIGHT THIS    YOU RAISE       WE LIGHT THIS PARTY UP   LIGHT IT UP
    PARTY UP         YOUR PARTY CUP

E|------------------------------------------------------------------|
B|------------------------------------------------------------------|
G|--7-7-7--7-7-7--------------------5-5-5-----------7---------------|
D|--7-7-7--7-7-7-----5-5-5--5-5-5---5-5-5---5-5-5---7---------------|
A|--5-5-5--5-5-5-----5-5-5--5-5-5---3-3-3---5-5-5---5---------------|
E|-------------------3-3-3--3-3-3-----------3-3-3-------------------|
    GIVE YOU A KISS  YOU BETTER     WE LIGHT THIS PARTY UP
    FOR LUCK         BUCKLE UP
Добавлено: 28.03.2016
Другие материалы по этой песне:
  • Аккорды и текст

Страница создана 28.03.2016
http://primanota.ru/rick-springfield/light-this-party-up-chords.htm
Привет, Гость.
Предлагаем пройти революционный курс по гитаре.
Подарок от PrimaNota.Ru, забирай!