PrimaNota.ru - самый крупный в мире бесплатный архив песенных текстов, аккордов, табулатур и нот


Rick Springfield - Down - таба, видео

Регистрация Запомнить меня
Войти через:  Facebook Google Twitter Vk Yandex Mail.ru

Rick Springfield - Down - таба, видео

Печатать
Просмотров: 63
DOWN

Not sure about this part tried playing it buy ear
e|------------------------------------------------------------------------------|
B|------------------------------------------------------------------------------|
G|--8/9-9--8-8--6-6--4-4--4h6--4-4----4---8/9-9--8-8--6-6--4-4--4h6--4-4----4---|
D|----------------------------------6-------------------------------------6-----|
A|------------------------------------------------------------------------------|
E|------------------------------------------------------------------------------|

e|-----------------------------------------------------|
B|-----------------------------------------------------|
G|--8/9-9--8-8--6-6--4-4--4h6--4-4----4-----4-6--------|
D|----------------------------------6---4--------4-----|
A|-----------------------------------------------------|
E|-----------------------------------------------------|
    E5   A5   Db   A5

E5                          A5
Down, down to the river and back
                             Db
Feeling like you're drowning again
        A5
It's as real as a heart attack

e|------------------------------------------|
B|------------------------------------------|
G|--8/9-9--8-8--6-6--4-4--4h6--4-4----4-----|
D|----------------------------------6-------|
A|------------------------------------------|
E|------------------------------------------|

E5                           A5
Up there like a mountain you stand
                            Db
Your body keeps remembering when
         A5                   E5
But your soul keeps fading to black

    Db                             A5
And I know you've been hurt you're betrayed inside
Db                        D5
I wanna be there when our worlds collide

E5                            A5
Down, I'm never gonna let you down
                       Db         A5
I wanna be the one who stands his ground
                E5
I wanna be that man

E5                       A5
So low you've never felt so broken
                                Db
You're dreaming when you try to pretend
           A5                        E5
But you'll run and you'll never look back

     Db                  A5
Baby life is hope it's a beautiful thing 
Db                         D5
Give me some rope and I'll make you a swing
        B5
For the little girl in you

E5                            A5
Down, I'm never gonna let you down
                       Db         A5
I wanna be the one who stands his ground
                E5
I wanna be that man

E5                             F#5
Down, yeah hell bent or heaven bound
                    A5
I'm walking on holy ground
                        E5
I'm never gonna let you down

C5          D5               E5
Here nobody leaves without a scar
C5
the deepest cuts will make you who you are

E5   A5  Db   A5

E5                            A5
Down, I'm never gonna let you down
                       Db         A5
I wanna be the one who stands his ground
                E5
I wanna be that man

E5                            F#5
Down, yeah hell bent or heaven bound
                    A5
I'm walking on holy ground
                        E5
I'm never gonna let you down

I'm never gonna let
A5                  Db
I'm never gonna let you
       A5                  E5
No I'm never gonna let you down

    E5   A5   Db   F#5   B5    C5    D5
e|------------------------------------------|
B|------------------------------------------|
G|-------2----6----------4-----5-----7------|
D|--2----2----6----4-----4-----5-----7------|
A|--2----0----4----4-----2-----3-----5------|
E|--0--------------2------------------------|
Добавлено: 28.03.2016
Вам также может быть интересно:
Другие материалы по этой песне:
  • Аккорды и текст

Страница создана 28.03.2016
http://primanota.ru/rick-springfield/down-chords.htm
Привет, Гость.
Предлагаем пройти революционный курс по гитаре.
Подарок от PrimaNota.Ru, забирай!