PrimaNota.ru - самый крупный в мире бесплатный архив песенных текстов, аккордов, табулатур и нот


Rick Pino - Water Into Wine - таба, видео

Регистрация Запомнить меня
Войти через:  Facebook Google Twitter Vk Yandex Mail.ru

Rick Pino - Water Into Wine - таба, видео

Печатать
Просмотров: 141
Уроки эстрадного вокала в Санкт-Петербурге
------------------------------------------------------------------------
                      Water Into Wine – Rick Pino
------------------------------------------------------------------------

Tabbed by: Clayton McInnes
Email: claytonmcinnes@live.com.au

I love this song so much! I'm not sure if it was a prophetic spontaneous song, but none 
less it's fun to play. Grab your talkbox if you've got one handy, you'll need it.

Tuning: Drop D
Pre-Intro
e|--------------------------------------------------------------------|
B|--------------------------------------------------------------------|
G|-5-7~-5-7-10-9-7-5-7~-----------------------------------------------|
D|--------------------------------------------------------------------|
A|--------------------------------------------------------------------|
D|--------------------------------------------------------------------|


Intro/Verse (Main Riff)
Palm Mute this intro/verse except for the last two chords.
e|--------------------------------------------------------------------|
B|--------------------------------------------------------------------|
G|--------------------------------------------------------------------|
D|-----0-----0----0-----3-----5-----3--5------------------------------|
A|---0-----0----------3-----5-------3--5------------------------------|
D|-0-----0-----0----3-----5---------3--5------------------------------|

Chords for whole Song Dm F G
e|--------------------------------------------------------------------|
B|--------------------------------------------------------------------|
G|-7~--10--12~--------------------------------------------------------|
D|-7~--10--12~--------------------------------------------------------|
A|-5~--8---10~--------------------------------------------------------|
D|-0~-----------------------------------------------------------------|


And his turning, turning, the water into wine. TALKBOX
e|--------------------------------------------------------------------|
B|--------------------------------------------------------------------|
G|--------------------------------------------------------------------|
D|---0~~--3p2h3-------------------------------------------------------|
A|---------------5p3-5~-----------------------------------------------|
D|-0------------------------------------------------------------------|

Instrumental and Chorus after the verse are just the three main chords.
e|------------------------------------------------------------------------|
B|------------------------------------------------------------------------|
G|-7-7-7-7-7-7-7-7---10-10-10-10-12--12--12--12---------------------------|
D|-7-7-7-7-7-7-7-7---10-10-10-10-12--12--12--12---------------------------|
A|-5-5-5-5-5-5-5-5---8--8--8--8--10--10--10--10---------------------------|
D|-0-0-0-0-0-0-0-0--------------------------------------------------------|


That's pretty much the basics of the song. I didn't tab the solo because I couldn't and 
mainly prophetic playing anyway, so make up your own solo. :) Any problems or anything 
me. Thanks for reading. God Bless.

John 4:23
Yet a time is coming and has now come when the true worshipers will worship the Father 
spirit and truth, for they are the kind of worshipers the Father seeks.


************************************

| h   hammer-on
| p   pull-off
| ~   vibrato

************************************
Добавлено: 09.06.2012
Другие материалы по этой песне:
  • Аккорды и текст

Страница создана 09.06.2012
http://primanota.ru/rick-pino/water-into-wine-chords.htm
Привет, Гость.
Предлагаем пройти революционный курс по гитаре.
Подарок от PrimaNota.Ru, забирай!