PrimaNota.ru - самый крупный в мире бесплатный архив песенных текстов, аккордов, табулатур и нот


Rick Pino - Burn For You - аккорды и текст, видео

Регистрация Запомнить меня
Войти через:  Facebook Google Twitter Vk Yandex Mail.ru

Rick Pino - Burn For You - аккорды и текст, видео

Печатать
Просмотров: 51
Burn For You
Rick Pino
-----------------------------------------------------------------------------
                                          Artist - Rick Pino
                                         ********************
                                         Song - Burn For You  
                                        *********************
                                       Album - The Narrow Road  
                                      *************************
                                         Tabbed By - Ayreon77
                                        **********************
-----------------------------------------------------------------------------
Tuning = Standard


INTRO
******
Dm       C        G
Mmmmmmm  Mmmmmmm  Mmmmmm  X8

ELECTRIC GUITAR
****************
 Guitar 1
00:14
e|-13-13-12-12-------10-10-------|
B|-------------13-13-------------|
G|-------------------------12-12-|
D|-------------------------------|
A|-------------------------------|
E|-------------------------------|X2


  Guitar 1
e|-13-13-12-12-------10-10-------|\  
B|-------------13-13-------------| \
G|-------------------------12-12-|  \
D|-------------------------------|   \
A|-------------------------------|    \
E|-------------------------------|     \
 |                               |      \X4 
 |Guitar 2                       |      /
e|-10-10-------------------------|     /
B|-------13-13-10-10-13-13-12-12-|    /
G|-------------------------------|   /
D|-------------------------------|  /
A|-------------------------------| / 
E|-------------------------------|/


i think towards the end of the small solos above the last note sound like this
e|----------------------------------------------s----------------|
B|-12-12-12-12-12-12-12-12-12-12-12-12-12-12-12-\---or something-|
G|-12-12-12-12-12-12-12-12-12-12-12-12-12-12-12-\-----like this--|
D|--------------------------------------------------------?------|
A|--------------------------it may be another guitar doing this--|
E|---------------------------------------------------------------|


---------------------------------
VERSE 1
********
   Dm            C
My heart is Your altar
   Am             G
So come and be my fire
Dm                        C
  Jesus, no one else will do 
Am                       G               Am
  cause I'm burning with desire for Your name  Yeaahhh

---------------------------------
01:17
SLIDE GUITAR - Am G F C G X2
*************
e|--------------------------------------------|
B|---s-----------s-----------s--------s---s---|
G|-7-\-9------12-\--------12-\------7-\-9-/-7-|
D|-----------------9-----------7--------------|
A|--------------------------------------------|
E|--------------------------------------------|X2


---------------------------------
CHORUS
*******
C              G            F        C   G    Am
  Let my heart burn, let it burn for You Yeah Yeaa
             G            F        C   G
Let my heart burn, let it burn for You
         F              C
No other love, no other name
         Am             G
No other fire but Yours remains
         F              C
No other love, no other name
         Am               G
No other fire but Yours remains

slide
e|----------------------------------------|
B|---S---S---------S---S----------S---S---|
G|-7-\-9-/-7-----7-\-9-/-7------7-\-9-/-7-|
D|----------------------------------------|
A|----------------------------------------|
E|----------------------------------------|

                      Dm   C    G
Let me burn with holy love Oooo Oooo

e|-10-10-------------------------|
B|-------13-13-10-10-13-13-12-12-|
G|-------------------------------|
D|-------------------------------|
A|-------------------------------|
E|-------------------------------|X2
                      Dm   C    G
Let me burn with holy love Oooo Oooo

Ohhhh

---------------------------------
VERSE 2
********
This is the small solo played with VERSE 2 below.
 
02:46 hold                  02:54                   03:01
e|----bend-----------------|-----------------------|----------------------|-b--b-8-b--------------|
B|-b-|-|-|-8-brp-----------|-------------brp-------|-b-----b-rp-----------|-8--8---8--brp---------|
G|-7-7-7-7---7--5---5----s-|--------h--5-7--5----s-|-7-----7---5---5----s-|-----------7--5-7--7-5-|
D|----------------7---7--\-|-5-5---5-7--------7--\-|-------------7---7--\-|-----------------------|
A|-------------------------|-----------------------|----------------------|-----------------------|
E|-------------------------|-----------------------|----------------------|-----------------------|

Dm          C          Am                  G
  Give us a generation    who says "no" to toleration
Dm                        C      
 But rather chooses to be free ee Yeahhh
Am                     G
 Oh God, give us a new breed


---------------------------------
CHORUS
*******
                      Dm   C    G
Let me burn with holy love Oooo Oooo

e|-10-10-------------------------|
B|-------13-13-10-10-13-13-12-12-|
G|-------------------------------|
D|-------------------------------|
A|-------------------------------|
E|-------------------------------|X2
                      Dm   C    G
Let me burn with holy love Oooo Yeah
C              G            F        C   G    Am
  Let my heart burn, let it burn for You Yeah Yeaa
             G            F        C   G
Let my heart burn, let it burn for You
         F              C
No other love, no other name
         Am             G
No other fire but Yours remains
         F              C
No other love, no other name
         Am               G      Dm C G
No other fire but Yours rem............ains

Dm C G X3

 This Section Has Wha Wha pedal on
e|-10-10-------------------------|
B|-------13-13-10-10-13-13-12-12-|
G|-------------------------------|
D|-------------------------------|
A|-------------------------------|
E|-------------------------------|




ENJOY............
Добавлено: 08.08.2015
Другие материалы по этой песне:
  • Аккорды и текст

Страница создана 08.08.2015
http://primanota.ru/rick-pino/burn-for-you-chords.htm
Привет, Гость.
Предлагаем пройти революционный курс по гитаре.
Подарок от PrimaNota.Ru, забирай!