PrimaNota.ru - самый крупный в мире бесплатный архив песенных текстов, аккордов, табулатур и нот


Rick Miller - A Promise Worth Making - таба, видео

Регистрация Запомнить меня
Войти через:  Facebook Google Twitter Vk Yandex Mail.ru

Rick Miller - A Promise Worth Making - таба, видео

Печатать
Просмотров: 82
                                          Artist - Rick Miller
                                         **********************
                                     Song - A Promise Worth Making
                                    *******************************
                                        Album - In The Shadows
                                       ************************
                                         Tabbed By - Ayreon77
                                        **********************


Electric Guitar
****************
00:57                                              h         
[---------------|------------------|---------h----5-6-5-----|
[-b----------h--|--p-h----s-s-s----|-----3--5-6-5-------8-8-|
[-5----5-3--5-3-|-3-2-3--3\5/3\2---|---3--------------------|
[---------------|----------------4-|-5----------------------|
[---------------|------------------|------------------------|
[---------------|------------------|------------------------|

        h p
[----8-8-9-8----8-|---p------|-------------------|---------------p---|
[-11---------11---|-11-10-11-|---s---------------|---------p---16-15-|
[-----------------|----------|-10\12-10---s------|---p---15-14-------|
[-----------------|----------|----------12\13-12-|-13-12-------------|
[-----------------|----------|-------------------|-------------------|
[-----------------|----------|-------------------|-------------------|

01:20                                                                   
[-----6-5-6----h--|-----6-5-6----h--|-----------------------|
[--s--------6-6-8-|--s--------6-6-8-|-rb---p----s----h-p-s--|
[-5\7-------------|-5\7-------------|-5-3-3-2-3-\2--3-5-3\5-|
[-----------------|-----------------|-----------------------|
[-----------------|-----------------|-----------------------|
[-----------------|-----------------|-----------------------|

         s   p                                PH       br
[-----5~-\8-6-5-6-5-6----h--s-|-6-5-6----h--|----6-6-6--------h--10-|
[---7-----------------6-6-8-\-|-------6-6-8-|-8-----------7--7-8----|
[-7---------------------------|-------------|-----------------------|
[-----------------------------|-------------|-----------------------|
[-----------------------------|-------------|-----------------------|
[-----------------------------|-------------|-----------------------|


01:45
Keyboard Trumpet
*****************

01:56
         b              br
[-15-17-17-~-~-|-15-17-17-15-----b-----|----------------------------------|
[--------------|-------------18-18-~-~-|--------rb-rb-rb---------rb-rb-rb-|
[--------------|-----------------------|-12-14-14-14-14---12-14-14-14-14--|
[--------------|-----------------------|----------------------------------|
[--------------|-----------------------|----------------------------------|
[--------------|-----------------------|----------------------------------|

           s
[-------15-\-|
[---s--------|
[-12\15------|
[------------|
[------------|
[------------|

-------------------------------------------------
02:20
VERSE 1 - Acoustc comes in here
********
  Gm                                  Cm
I walk through hallowed places in the night
        Bb           D
But the day keeps me waiting
   Gm                                  Cm 
My dreams are lost like shadows in the light
       Bb         D
As the morning is breaking.

------------------------------------------------- 
CHORUS
*******
Gm                Cm
Dream with me and you will see
          Bb           D
Where the prophets lie waiting
Gm                    Cm
Take his hand, you'll understand
       Bb            D
It's a promise worth making. 

-------------------------------------------------
KEYBOARDS - Gm Cm D
**********
-------------------------------------------------
KEYBOARD SOLO - Gm Cm Bb D X3
**************
-------------------------------------------------
03:56                                   [-----------|
VERSE 2                                 [-b--brp----|  
********                                [-5--5--3---|           
   Gm                              Cm   [---------5-|    
My mind is somehow drifting to the past [-----------|         
       Bb         D                     [-----------|            
Silent voices are calling

[---------------p---------|
[---------p---16-15-13----|
[---p---15-14----------15-|
[-13-12-------------------|
[-------------------------|
[-------------------------|

  Gm                               Cm
I don't know how much longer I can last

[-b-r-|
[-8---|
[-----|
[-----|
[-----|
[-----|
        Bb     D
Time is fading away.

[-6-b-b---b-----|
[---8-8--10-10~-|
[---------------|
[---------------|
[---------------|
[---------------|

-------------------------------------------------
GUITAR SOLO - Gm Cm Bb D X2
************
[-----3-------b-|-b-3--p----------------|------h-s--|--h-p-s------|
[-b-3---3-----6-|-6---6-3--p-p---p---h--|-3---3-4\6-|-4-6-4\3-----|
[-5-------5-3---|---------6-5-3-5-3-3-5-|---5-------|---------3-3-|
[---------------|-----------------------|-----------|-------------|
[---------------|-----------------------|-----------|-------------|
[---------------|-----------------------|-----------|-------------|

                    b b b   s                 h p
[------h-s---s--|---8-----8-\-|--s-----8-8-8-8-9-8----8-----------|
[-----3-4\6-6\7-|-------------|-7\8-11-------------11----8-11-8-8-|
[---3-----------|-7-----------|-----------------------------------|
[-3-------------|-------------|-----------------------------------|
[---------------|-------------|-----------------------------------|
[---------------|-------------|-----------------------------------|

                 PH                                                 h
[-----------------|------------------------------------|---------3-5-6-5-3-|
[--s--6--s---------------------------------------------|-------3-----------|
[-5\7---7\5-3---5-3---p--------------------------------|--s--3-------------|
[-------------5------5-3-5---s--3---------------s--3-4-|-3\4---------------|
[---------------------------3\5---5-4-3-1-3--1-3\5-----|-------------------|
[------------------------------------------------------|-------------------|

------------------------------------------------- 
CHORUS
*******
Gm                Cm
Dream with me and you will see
          Bb           D
Where the prophets lie waiting
     rb
[-10-8-6-5----------|
[----------8----6-8-|
[-------------7-----|
[-------------------|
[-------------------|
[-------------------|

Gm                    Cm 
Take his hand, you'll understand

[--s------s-|
[-6\8----8\-|
[-----------|
[-----------|
[-----------|
[-----------|

       Bb         D
It's a life worth taking.

[-7-b----------------|
[---6-5----bs---p----|
[-------7-6-\--3-2---|
[------------------5-|
[--------------------|
[--------------------|

Gm                Cm
Dream with me and you will see
          Bb           D
Where the prophets lie waiting

          br
[-------3-5--3-2-3-3-|
[-----3--------------|
[---3----------------|
[-4------------------|
[--------------------|
[--------------------|

Gm                    Cm
Take his hand, you'll understand
       Bb            D
It's a promise worth making. 

-------------------------------------------------
GUITAR SOLO                                         start fading out
************
               b   b  r                                       b
[---3-6-3---3--6-|-8---6-3-3-|---3-6-3-------3----------------6-3-----------|
[-b-------6------|-----------|-3-------3-3-b---brp-------h--------6-3---3-b-|
[-5--------------|-----------|-------------5---5--3-5-3-3-5-3---------5---5-|
[----------------|-----------|----------------------------------------------|
[----------------|-----------|----------------------------------------------|
[----------------|-----------|----------------------------------------------|

                                   b  b b     b    h
[-----------------------|----------8--8-8-8-6-8-8-6-8---|
[-br--3-6-3---3-b-rp----|-----6-----------------------8-|
[-5---------5---5---3---|-3-----------------------------|
[---------------------5-|---5---------------------------|
[-----------------------|-------------------------------|
[-----------------------|-------------------------------|


A cool tune. Enjoy...........
Добавлено: 12.11.2013
Другие материалы по этой песне:
  • Аккорды и текст

Страница создана 12.11.2013
http://primanota.ru/rick-miller/a-promise-worth-making-chords.htm
Привет, Гость.
Предлагаем пройти революционный курс по гитаре.
Подарок от PrimaNota.Ru, забирай!