PrimaNota.ru - самый крупный в мире бесплатный архив песенных текстов, аккордов, табулатур и нот


Rick Kephart - Merry Day - аккорды и текст, таба, видео

Регистрация Запомнить меня
Войти через:  Facebook Google Twitter Vk Yandex Mail.ru

Rick Kephart - Merry Day - аккорды и текст, таба, видео

Печатать
Просмотров: 121
Уроки эстрадного вокала в Санкт-Петербурге
Merry Day
Rick Kephart
		   MERRY DAY

an original guitar tune by Rick Kephart  rmk@netaxs.com>
/ hammer-on          = hold      . Dot after a note means dotted-quarter-note
Key: G & Bm          Time: 4/4    Tempo: very fast

    |   |   |   |      |   |   |   |      |   |   |   |      |   |   |   |
e|--3---2-0---------|------------------|--3---2-0---------|--------------0---|
b|------------3.====|--0/1-3===========|------------3.====|--0/1-3---1-3-----|
g|------------------|------------------|------------------|------------------|
D|------0-------0---|------0-------0---|------0-------0---|------0-------2---|
A|------------------|----------2-------|------------------|----------3-------|
E|--3-------3-------|--3---------------|--3-------3-------|--3---------------|


e ------------------|
b --1-3=============|
g ------------------|
D ------0-------0---|
A --3---------------|
E ----------3-------|


e|--3---2-0---------|------------------|--3---2-0---------|--------------0---|
b|------------3.====|--0/1-3===========|------------3.====|--0/1-3---1-3-----|
g|------------------|------------------|------------------|------------------|
D|------0-------0---|------0-------0---|------0-------0---|------0-------2---|
A|------------------|----------2-------|------------------|----------3-------|
E|--3-------3-------|--3---------------|--3-------3-------|--3---------------|


e --3---------------|
b ----3=============|
g ------------------|
D ------0-------0---|
A ----------2-------|
E --3---------------|


e|--3---2-0---------|------------------|------0-------0---|------------------|
b|------------3.====|--0/1-3===========|--1-3---3-1-3-----|--0-1-3---1-3-0---|
g|------------------|------------------|------------------|------------------|
D|------0-------0---|------0-------0---|------2-------2---|------0-------2---|
A|------------------|------------------|--3-------3-------|--2-------3-------|
E|--3-------3-------|--3-------3-------|------------------|------------------|


    V------------

e --5---3-2---------|-3----2-0---------|--2---0-----------|------------------|
b ----------3.======|----------3.======|--------3-1.======|--3==============-|
g ------------------|------------------|------2-------2---|------------------|
D ------2-------2---|------0-------0---|------------------|------0-------0---|
A --0-------0-------|------------------|--3-------3-------|----------2-------|
E ------------------|--3-------3-------|------------------|--3---------------|


  III      II         II-------------                        II------------

e -3=======2======||--------------2----|--------------0---|--------------2---|
b -3=======2======||*-----------3------|------------0-----|------------2-----|
g -4=======3======||--r-----4----------|--r-----0---------|--r-----3---------|
D -5=======4======||*---4-----4--------|----2-----2-------|----4-----4-------|
A ----------------||------2-------2----|------2-------2---|------4-------4---|
E ----------------||--2----------------|--0---------------|--2---------------|


            II----    II------------                         II-----------

e ------0-------2---|----2-----2---2---|----0-----0---0---|----2-----2---2---|
b --r---0---r---2---|--r---3-----3-----|--r---0-----0-----|--r---2-----2-----|
g ------0-------3---|--------4---------|--------0---------|--------3---------|
D --2=======4=======|--4---4---4---4---|--2---2---2---2---|--4---4---4---4---|
A ------------------|------------------|------------------|------------------|
E ------------------|------------------|------------------|------------------|


  __________________    __________________
  |1. VI----  II---|    |2. VI---   VII

e --------6-------2---||--------6---7=======|--5======4========|
b ----r---7---r---2--*||----r---7---7=======|------------------|
g --------6-------3---||--------6---8=======|------------------|
D ----8=======4======*||----8=======9=======|--7======6========|
A --------------------||--------------------|------------------|
E --------------------||--------------------|------------------|


e|--3---2-0---------|------------------|--3---2-0---------|--------------0---|
b|------------3.====|--0/1-3===========|------------3.====|--0/1-3---1-3-----|
g|------------------|------------------|------------------|------------------|
D|------0-------0---|------0-------0---|------0-------0---|------0-------2---|
A|------------------|----------2-------|------------------|----------3-------|
E|--3-------3-------|--3---------------|--3-------3-------|--3---------------|


e ------------------|
b --1-3=============|
g ------------------|
D ------0-------0---|
A --3---------------|
E ----------3-------|


e|--3---2-0---------|------------------|--3---2-0---------|--------------0---|
b|------------3.====|--0/1-3===========|------------3.====|--0/1-3---1-3-----|
g|------------------|------------------|------------------|------------------|
D|------0-------0---|------0-------0---|------0-------0---|------0-------2---|
A|------------------|----------2-------|------------------|----------3-------|
E|--3-------3-------|--3---------------|--3-------3-------|--3---------------|


e --3---------------|
b ----3=============|
g ------------------|
D ------0-------0---|
A ----------2-------|
E --3---------------|


e|--3---2-0---------|------------------|------0-------0---|------------------|
b|------------3.====|--0/1-3===========|--1-3---3-1-3-----|--0-1-3---1-3-0---|
g|------------------|------------------|------------------|------------------|
D|------0-------0---|------0-------0---|------2-------2---|------0-------2---|
A|------------------|------------------|--3-------3-------|--2-------3-------|
E|--3-------3-------|--3-------3-------|------------------|------------------|


    V--------------

e --5---3-2---------|-3----2-0---------|--2---0-----------|------0---3======||
b ------------3.====|------------3.====|--------3-1.======|--1--------------||
g ------------------|------------------|------2-------2---|----------0======||
D ------2-------2---|------0-------0---|------------------|------2----------||
A --0-------0-------|------------------|--3-------3-------|--3--------------||
E ------------------|--3-------3-------|------------------|----------3======||

end of song


From rec.music.makers.guitar.tablature Sun Apr  9 21:41:40 1995
Newsgroups: rec.music.makers.guitar.tablature

                                   MERRY DAY

an original guitar tune
by Rick Kephart  rmk@netaxs.com> http://www.netaxs.com/~rmk

/ hammer-on          = hold      . Dot after a note means dotted-quarter-note
Key: G & Bm          Time: 4/4    Tempo: very fast

    |   |   |   |      |   |   |   |      |   |   |   |      |   |   |   |
e|--3---2-0---------|------------------|--3---2-0---------|--------------0---|
b|------------3.====|--0/1-3===========|------------3.====|--0/1-3---1-3-----|
g|------------------|------------------|------------------|------------------|
D|------0-------0---|------0-------0---|------0-------0---|------0-------2---|
A|------------------|----------2-------|------------------|----------3-------|
E|--3-------3-------|--3---------------|--3-------3-------|--3---------------|


e ------------------|
b --1-3=============|
g ------------------|
D ------0-------0---|
A --3---------------|
E ----------3-------|


e|--3---2-0---------|------------------|--3---2-0---------|--------------0---|
b|------------3.====|--0/1-3===========|------------3.====|--0/1-3---1-3-----|
g|------------------|------------------|------------------|------------------|
D|------0-------0---|------0-------0---|------0-------0---|------0-------2---|
A|------------------|----------2-------|------------------|----------3-------|
E|--3-------3-------|--3---------------|--3-------3-------|--3---------------|


e --3---------------|
b ----3=============|
g ------------------|
D ------0-------0---|
A ----------2-------|
E --3---------------|


e|--3---2-0---------|------------------|------0-------0---|------------------|
b|------------3.====|--0/1-3===========|--1-3---3-1-3-----|--0-1-3---1-3-0---|
g|------------------|------------------|------------------|------------------|
D|------0-------0---|------0-------0---|------2-------2---|------0-------2---|
A|------------------|------------------|--3-------3-------|--2-------3-------|
E|--3-------3-------|--3-------3-------|------------------|------------------|


    V------------

e --5---3-2---------|-3----2-0---------|--2---0-----------|------------------|
b ----------3.======|----------3.======|--------3-1.======|--3==============-|
g ------------------|------------------|------2-------2---|------------------|
D ------2-------2---|------0-------0---|------------------|------0-------0---|
A --0-------0-------|------------------|--3-------3-------|----------2-------|
E ------------------|--3-------3-------|------------------|--3---------------|


  III      II         II-------------                        II------------

e -3=======2======||--------------2----|--------------0---|--------------2---|
b -3=======2======||*-----------3------|------------0-----|------------2-----|
g -4=======3======||--r-----4----------|--r-----0---------|--r-----3---------|
D -5=======4======||*---4-----4--------|----2-----2-------|----4-----4-------|
A ----------------||------2-------2----|------2-------2---|------4-------4---|
E ----------------||--2----------------|--0---------------|--2---------------|


            II----    II------------                         II-----------

e ------0-------2---|----2-----2---2---|----0-----0---0---|----2-----2---2---|
b --r---0---r---2---|--r---3-----3-----|--r---0-----0-----|--r---2-----2-----|
g ------0-------3---|--------4---------|--------0---------|--------3---------|
D --2=======4=======|--4---4---4---4---|--2---2---2---2---|--4---4---4---4---|
A ------------------|------------------|------------------|------------------|
E ------------------|------------------|------------------|------------------|


  __________________    __________________
  |1. VI----  II---|    |2. VI---   VII

e --------6-------2---||--------6---7=======|--5======4========|
b ----r---7---r---2--*||----r---7---7=======|------------------|
g --------6-------3---||--------6---8=======|------------------|
D ----8=======4======*||----8=======9=======|--7======6========|
A --------------------||--------------------|------------------|
E --------------------||--------------------|------------------|


e|--3---2-0---------|------------------|--3---2-0---------|--------------0---|
b|------------3.====|--0/1-3===========|------------3.====|--0/1-3---1-3-----|
g|------------------|------------------|------------------|------------------|
D|------0-------0---|------0-------0---|------0-------0---|------0-------2---|
A|------------------|----------2-------|------------------|----------3-------|
E|--3-------3-------|--3---------------|--3-------3-------|--3---------------|


e ------------------|
b --1-3=============|
g ------------------|
D ------0-------0---|
A --3---------------|
E ----------3-------|


e|--3---2-0---------|------------------|--3---2-0---------|--------------0---|
b|------------3.====|--0/1-3===========|------------3.====|--0/1-3---1-3-----|
g|------------------|------------------|------------------|------------------|
D|------0-------0---|------0-------0---|------0-------0---|------0-------2---|
A|------------------|----------2-------|------------------|----------3-------|
E|--3-------3-------|--3---------------|--3-------3-------|--3---------------|


e --3---------------|
b ----3=============|
g ------------------|
D ------0-------0---|
A ----------2-------|
E --3---------------|


e|--3---2-0---------|------------------|------0-------0---|------------------|
b|------------3.====|--0/1-3===========|--1-3---3-1-3-----|--0-1-3---1-3-0---|
g|------------------|------------------|------------------|------------------|
D|------0-------0---|------0-------0---|------2-------2---|------0-------2---|
A|------------------|------------------|--3-------3-------|--2-------3-------|
E|--3-------3-------|--3-------3-------|------------------|------------------|


    V--------------

e --5---3-2---------|-3----2-0---------|--2---0-----------|------0---3======||
b ------------3.====|------------3.====|--------3-1.======|--1--------------||
g ------------------|------------------|------2-------2---|----------0======||
D ------2-------2---|------0-------0---|------------------|------2----------||
A --0-------0-------|------------------|--3-------3-------|--3--------------||
E ------------------|--3-------3-------|------------------|----------3======||

end of song     
Добавлено: 28.10.2013
Вам также может быть интересно:
Другие материалы по этой песне:
  • Аккорды и текст

Страница создана 30.04.2012
http://primanota.ru/rick-kephart/merry-day-chords.htm
Привет, Гость.
Предлагаем пройти революционный курс по гитаре.
Подарок от PrimaNota.Ru, забирай!