PrimaNota.ru - самый крупный в мире бесплатный архив песенных текстов, аккордов, табулатур и нот


Rick Derringer - Rock And Roll Hoochie Koo - таба, бас-таба, видео

Регистрация Запомнить меня
Войти через:  Facebook Google Twitter Vk Yandex Mail.ru

Rick Derringer - Rock And Roll Hoochie Koo - таба, бас-таба, видео

Печатать
Просмотров: 145
Авторы музыки: Rick Derringer
Авторы текста: Rick Derringer



From: Dan G 
Date: Thu, 14 Feb 2002 21:41:48 -0800
Subject: w/winter_johnny/rock_and_roll_hoochie_koo.tab

Rock and Roll, Hoochie Koo 
--------------------------
Recorded 1970 
Released 1970 or 1971
Band Name:  Johhny Winter And
Band Members:
  Winter, Johnny - guitar, vocals 
  Derringer, Rick - guitar, vocals 
  Hobbs, Randy Jo - bass 
  Z, Randy - drums 
Tracks:
  Guess I'll Go Away 
  Ain't That a Kindness 
  No Time To Live 
  Rock and Roll, Hoochie Koo 
  Am I Here 
  Look Up 
  Prodigal Son 
  On the Limb 
  Let The Music Play 
  Nothing Left 
  Funky Music 

Trivia:  In 1970 Johnny Winter joined Rick Derringer's 
band, The McCoys. More precisely, apparently, the 
McCoys became Johnny's band.  It was to be called 
Johnny Winter and The McCoys.  They named the 
album Johnny Winter And, and that became the name
of that band.  Rick Derringer identifies this song
as a single from that album.  It was first recorded 
with Johnny on vocals.  Later, Derringer recorded it 
(and sang it) in his solo band. 

   h    = hammer-on
   s    = sustain
   b    = slight bend
   b(#) = bend up to that note #
   /    = slide up

Intro/Chorus chords:
 (Progression A)
   F F      G G      A A
E---------|--------|--------------|----------|
B---------|--------|--------------|----------|
G---------|--------|--------------|----------|
D---------|--------|--------------|----------|
A--3-3----|-5-5----|-7-7------0---|-3--0---0-|
E--1-1----|-3-3----|-5-5-0-h3---3-|-------3--|

 (Progression B)
   F F      C   G    A A
E---------|--------|--------------|----------|
B---------|--------|--------------|----------|
G---------|--------|--------------|----------|
D---------|-5------|--------------|----------|
A--3-3----|-3---5--|-7-7------0---|-3--0---0-|
E--1-1----|-----3--|-5-5-0-h3---3-|-------3--|

 (Progression C)
E---------|--------|--------------|----------|
B---------|--------|--------------|----------|
G---------|--------|--------------|----------|
D---------|-5------|--------------|----------|
A--3-3----|-3--5---|-7------------|----------|
E--1-1----|----3---|-5------------|-----5-3b-|

---1-2----|-1--3---|-1------------|----3--4--| 
Добавлено: 09.09.2013
Другие материалы по этой песне:

Страница создана 27.04.2012
http://primanota.ru/rick-derringer/rock-and-roll-hoochie-koo-chords.htm
Привет, Гость.
Предлагаем пройти революционный курс по гитаре.
Подарок от PrimaNota.Ru, забирай!