PrimaNota.ru - самый крупный в мире бесплатный архив песенных текстов, аккордов, табулатур и нот


Richie Ren Ah Niu Guang Liang - Lang Hua Yi Duo Duo - аккорды и текст, видео

Регистрация Запомнить меня
Войти через:  Facebook Google Twitter Vk Yandex Mail.ru

Richie Ren Ah Niu Guang Liang - Lang Hua Yi Duo Duo - аккорды и текст, видео

Печатать
Просмотров: 25
Lang Hua Yi Duo Duo
Richie Ren Ah Niu Guang Liang
===========================================================================================================
Lang Hua Yi Duo Duo by Richie Ren, Ah Niu & Guang Liang
===========================================================================================================

INTRO: (you may play "G D C" as intro)
G   D   G   D
La..la..la... 
G   D   G   D
La..la..la...

VERSE:
G                D             C                  G
Wo Yao Ni Pei Ze Wo, Kan Ze Na Hai Kui Shui Zhong You
G                  D                     C              G
Man man De Pa Zai Sha Tan Shang, Su Ze Lang Hua Yi Duo Duo 

C             G       C         G
Ni Bu Yao Hai Pha, Ni Bu Hui Ji Mo
Em                   Bm             C              G
Wo Hui Yi Ci Pei Zai Ni De Cou You, Rang Ni Le You You 

1st FILLER
E |------10p-8--8--7--8--8/10-|
B |---------------------------|
G |--5/7----------------------|
D |---------------------------|
A |---------------------------|
E |---------------------------|
2nd FILLER
E |------------------|
B |------------------|
G |------------------|
D |------5-----------|
A |--5h7---7-5-------|
E |------------7h8-7-|

PRE-CHORUS:
Bm                    Em          Bm                Em
Ri Zi Yi Tian Yi Tian Guo, Wo Men Hui Man Man Chang Ta
Am                                           D
Wo Bu Kuan Ni Tong Bu Tong Wo Zai Chang Shen Me oohh...

Bm                Em       Bm                   Em
Wo Zhi Dao You Yi Tian, Ni Yi Ting Hui Ai Shang Wo
Am                     C             D 
Ying Wei Wo Zhi Dao Wo Zen De Hen Bu Chuo oohh... 

CHORUS:
          C
Shi Guang Cong Cong Cong Cong Liu Zou
G                    Am                        G
Ye Ye Ye Bu Hui Tou, Mei Nu Bian Cheng Lao Tai Po
      C                    G
Ai Yo Na Na Na Ge Shi Hou, Wo Wo Wo Ye Ye
Am                      G
Yi Jing Shi Ge Zhao Lao Thou

    C   G  Am                     G
La..La..La Wo Men Yi Ci Shou Qian Shou
    C   G  Am             D      G
La..La..La Su Ze Lang Hua Yi Duo Duo 


INTRO & FILLER
E |--3---2---0-0---2---|--3---2---0-|
B |--0---3---1-1---3---|--0---3---1-|
G |--0-0-2-2-0-0-0-2-0-|--0-0-2-2-0-|
D |------0-------------|------0-----|
A |----------3-3---0---|----------3-|
E |--3-----------------|--3---------|
ENDING
E |--3---2---0-0---2---|--3---2---0-|--7---5---3-3/5---|--7---5---3-|
B |--0---3---1-1---3---|--0---3---1-|--8---7---5-5/7---|--8---7---5-|
G |--0-0-2-2-0-0-0-2-0-|--0-0-2-2-0-|--7-7-7-7-5-5/7-7-|--7-7-7-7-5-|
D |------0-------------|------0-----|--5---5-----------|--5---5-----|
A |----------3-3---0---|----------3-|------------------|------------|
E |--3-----------------|--3---------|------------------|------------|

Harmony (except 10 on the A string)
--------||
--12----||
--12----||
--12----||
--10----||
--------||
===========================================================================================================
END
===========================================================================================================
Добавлено: 10.11.2015
Другие материалы по этой песне:
  • Аккорды и текст

Страница создана 10.11.2015
http://primanota.ru/richie-ren-ah-niu-guang-liang/lang-hua-yi-duo-duo-chords.htm
Привет, Гость.
Предлагаем пройти революционный курс по гитаре.
Подарок от PrimaNota.Ru, забирай!