PrimaNota.ru - самый крупный в мире бесплатный архив песенных текстов, аккордов, табулатур и нот


Richardson J P - Chantilly Lace - бас-таба, видео

Регистрация Запомнить меня
Войти через:  Facebook Google Twitter Vk Yandex Mail.ru

Richardson J P - Chantilly Lace - бас-таба, видео

Печатать
Просмотров: 66
Уроки эстрадного вокала в Санкт-Петербурге
Chantilly_Lace.btab

Basstab by Jan Bjorklund, Finland  jani_bjorklund@yahoo.se>
You are welcome to request for basstabs!
Bienvenidos a pedirme transcripciones para el bajo!
Fingering and positions as suggested by TablEdit. 

TablEdited by Jan Bjorklund
Tuning : E A D G 	Time Signature: 4/4

 |       |       |       |        |       |       |       |        
|5-------3-------2---------------|5-------3-------2---------------|
|------------------------5-------|------------------------5-------|
|--------------------------------|--------------------------------|
|--------------------------------|--------------------------------|

 |       |       |       |        |       |       |       |        
|----------------5-------7-------|10------7-----------------------|
|--------7-----------------------|----------------10------7-------|
|8-------------------------------|--------------------------------|
|--------------------------------|--------------------------------|

 |       |       |       |        |       |       |       |        
|----------------0-------2-------|5-------3-------2---------------|
|--------2-----------------------|------------------------5-------|
|3-------------------------------|--------------------------------|
|--------------------------------|--------------------------------|

 |       |       |       |        |       |       |       |        
|----------------5-------7-------|10------8-------7---------------|
|--------7-----------------------|------------------------10------|
|8-------------------------------|--------------------------------|
|--------------------------------|--------------------------------|

 |       |       |       |        |       |       |       |        
|3-------2-------0---------------|------------------------7-------|
|------------------------3-------|8-------7-------8---------------|
|--------------------------------|--------------------------------|
|--------------------------------|--------------------------------|

 |       |       |       |        |       |       |       |        
|10------7-----------------------|------------------------2-------|
|----------------10------7-------|3-------2-------3---------------|
|--------------------------------|--------------------------------|
|--------------------------------|--------------------------------|

 |       |       |       |        |       |       |       |        
|5-------3-----------------------|----------------0-------2-------|
|----------------5-------2-------|--------2-----------------------|
|--------------------------------|3-------------------------------|
|--------------------------------|--------------------------------|

 |       |       |       |        |       |       |       |        
|----------------5-----5-7-----5-|10------------------------------|
|--------7-----7-----------------|--------------------------------|
|8-----8-------------------------|--------------------------------|
|--------------------------------|--------------------------------|

 |       |       |       |        |       |       |       |        
|5-------3-------2---------------|5-------3-------2---------------|
|------------------------5-------|------------------------5-------|
|--------------------------------|--------------------------------|
|--------------------------------|--------------------------------|

 |       |       |       |        |       |       |       |        
|----------------5-------7-------|10------7-----------------------|
|--------7-----------------------|----------------10------7-------|
|8-------------------------------|--------------------------------|
|--------------------------------|--------------------------------|

 |       |       |       |        |       |       |       |        
|----------------0-------2-------|5-------3-------2---------------|
|--------2-----------------------|------------------------5-------|
|3-------------------------------|--------------------------------|
|--------------------------------|--------------------------------|

 |       |       |       |        |       |       |       |        
|----------------5-------7-------|10------8-------7---------------|
|--------7-----------------------|------------------------10------|
|8-------------------------------|--------------------------------|
|--------------------------------|--------------------------------|

 |       |       |       |        |       |       |       |        
|3-------2-------0---------------|------------------------7-------|
|------------------------3-------|8-------7-------8---------------|
|--------------------------------|--------------------------------|
|--------------------------------|--------------------------------|

 |       |       |       |        |       |       |       |        
|10------7-----------------------|------------------------2-------|
|----------------10------7-------|3-------2-------3---------------|
|--------------------------------|--------------------------------|
|--------------------------------|--------------------------------|

 |       |       |       |        |       |       |       |        
|5-------3-----------------------|----------------0-------2-----0-|
|----------------5-------2-------|--------2-----------------------|
|--------------------------------|3-------------------------------|
|--------------------------------|--------------------------------|

 |       |       |       |        |       |       |       |        
|--------------------------------|--------------------------------|
|3-------------------------------|--------------------------------|
|--------------------------------|--------------------------------|
|--------------------------------|--------------------------------|

 |       |       |       |        |       |       |       |        
|5-------3-------2---------------|5-------3-------2---------------|
|------------------------5-------|------------------------5-------|
|--------------------------------|--------------------------------|
|--------------------------------|--------------------------------|

 |       |       |       |        |       |       |       |        
|----------------5-------7-------|10------7-----------------------|
|--------7-----------------------|----------------10------7-------|
|8-------------------------------|--------------------------------|
|--------------------------------|--------------------------------|

 |       |       |       |        |       |       |       |        
|----------------0-------2-------|5-------3-------2---------------|
|--------2-----------------------|------------------------5-------|
|3-------------------------------|--------------------------------|
|--------------------------------|--------------------------------|

 |       |       |       |        |       |       |       |        
|----------------5-------7-------|10------8-------7---------------|
|--------7-----------------------|------------------------10------|
|8-------------------------------|--------------------------------|
|--------------------------------|--------------------------------|

 |       |       |       |        |       |       |       |        
|3-------2-------0---------------|------------------------7-------|
|------------------------3-------|8-------7-------8---------------|
|--------------------------------|--------------------------------|
|--------------------------------|--------------------------------|

 |       |       |       |        |       |       |       |        
|10------7-----------------------|------------------------2-------|
|----------------10------7-------|3-------2-------3---------------|
|--------------------------------|--------------------------------|
|--------------------------------|--------------------------------|

 |       |       |       |        |       |       |       |        
|5-------3-----------------------|----------------0-------2-------|
|----------------5-------2-------|--------2-----------------------|
|--------------------------------|3-------------------------------|
|--------------------------------|--------------------------------|

 |       |       |       |        |       |       |       |        
|----------------5-----5-7-----5-|10------------------------------|
|--------7-----7-----------------|--------------------------------|
|8-----8-------------------------|--------------------------------|
|--------------------------------|--------------------------------|

 |       |       |       |        |       |       |       |        
|5-------3-------2---------------|5-------3-------2---------------|
|------------------------5-------|------------------------5-------|
|--------------------------------|--------------------------------|
|--------------------------------|--------------------------------|

 |       |       |       |        |       |       |       |        
|----------------5-------7-------|10------7-----------------------|
|--------7-----------------------|----------------10------7-------|
|8-------------------------------|--------------------------------|
|--------------------------------|--------------------------------|

 |       |       |       |        |       |       |       |        
|----------------0-------2-------|5-------3-------2---------------|
|--------2-----------------------|------------------------5-------|
|3-------------------------------|--------------------------------|
|--------------------------------|--------------------------------|

 |       |       |       |        |       |       |       |        
|----------------5-------7-------|10------8-------7---------------|
|--------7-----------------------|------------------------10------|
|8-------------------------------|--------------------------------|
|--------------------------------|--------------------------------|

 |       |       |       |        |       |       |       |        
|3-------2-------0---------------|------------------------7-------|
|------------------------3-------|8-------7-------8---------------|
|--------------------------------|--------------------------------|
|--------------------------------|--------------------------------|

 |       |       |       |        |       |       |       |        
|10------7-----------------------|------------------------2-------|
|----------------10------7-------|3-------2-------3---------------|
|--------------------------------|--------------------------------|
|--------------------------------|--------------------------------|

 |       |       |       |        |       |       |       |        
|5-------3-----------------------|----------------0-------2-----0-|
|----------------5-------2-------|--------2-----------------------|
|--------------------------------|3-------------------------------|
|--------------------------------|--------------------------------|

 |       |       |       |        |       |       |       |        
|--------------------------------|----------------------5-7-----10|
|3-------------------------------|--------------------------------|
|--------------------------------|--------------------------------|
|--------------------------------|--------------------------------|

 |       |       |       |        
|--------------------------------|
|----3---------------------------|
|--------------------------------|
|----1---------------------------|


Created with TablEdit http://www.tabledit.com/

............................................................
     
Добавлено: 21.10.2013
Другие материалы по этой песне:
  • Аккорды и текст

Страница создана 21.10.2013
http://primanota.ru/richardson-j-p/chantilly-lace-chords.htm
Привет, Гость.
Предлагаем пройти революционный курс по гитаре.
Подарок от PrimaNota.Ru, забирай!