PrimaNota.ru - самый крупный в мире бесплатный архив песенных текстов, аккордов, табулатур и нот


Richards Tim - The Other Side - таба, видео

Регистрация Запомнить меня
Войти через:  Facebook Google Twitter Vk Yandex Mail.ru

Richards Tim - The Other Side - таба, видео

Печатать
Просмотров: 56
THE OTHER SIDE
By Tim Richards

Transcribed by T Baker (tim@svhyde.freeserve.co.uk)


This is an upbeat jazz/blues piano piece that I have
adapted for the Spanish guitar. The slides and
hammer-ons/ pull-offs are just ideas, so feel free to
add or take away your own. It is played quite fast with
a sixteenth note feel. I play it fingerstyle.

If you have any comments or corrections, you can email
me at the above address. Enjoy!

This is all my own work.

--------------------------5------------------------------
-----1-1-----1------------4p3--1-1-1--1----------------1-
-0-2-----2-0---------------------0-----------------0-2---
------------------2--3-------------3--2----2--3----------
-----3-3-----3-----------------------------------------3-
------------------3--5---------------------3--5\---------


------------------------3---3p1----3---------------------
-1-----1--/5------------3-1-3p1----1----------------1-1--
---2-0--------------------------2---------------0h2------
----------/5----2--3--------------------2--3-------------
-3-----3--------------------------------------------3-3--
----------------3--5--------------------3--5-------------


------------------3--/5----------------------------------
-----1------------4--/6-4----3-5\---------------1-1------
-2p0------2--3------5-----5--3-5\---2--3----0h2-----2p0--
---------------------------------------------------------
-----3----3--5----------------------3--5\-------3-3------
---------------------------------------------------------


--------------5-3--------------------------x---5---/--|
-1---------------4--------------1----------x---5---/--|
-------------------5-0---------------------x---5---/--|
------2--3---------------3^×0h1h2-----2--3--x---5---/--|
-3-----------------------------------------x---3---/--|
------3--5---------------------------3--5--x----------|


This is all my own work.
     
Добавлено: 24.06.2013
Другие материалы по этой песне:
  • Аккорды и текст

Страница создана 24.06.2013
http://primanota.ru/richards-tim/the-other-side-chords.htm
Привет, Гость.
Предлагаем пройти революционный курс по гитаре.
Подарок от PrimaNota.Ru, забирай!