PrimaNota.ru - самый крупный в мире бесплатный архив песенных текстов, аккордов, табулатур и нот


Вагнер Рихард - Here Comes The Bride - таба, видео

Регистрация Запомнить меня
Войти через:  Facebook Google Twitter Vk Yandex Mail.ru

Вагнер Рихард - Here Comes The Bride - таба, видео

Печатать
Просмотров: 263
Уроки эстрадного вокала в Санкт-Петербурге
Original title: Hochzeitsmarsch - Treulich geführt
Richard Wagner

Tabbed by Federico Bautista
bautistafederico@outlook.com
March 2015

COMMENT, RATE AND SHARE!

Tuning: Standard
Key: C
2/4

    Q   E. S  Q   Q     H         H           Q   E. S  H         Q   E. S
 E|-3---3--3|-3---3---|-3-------|-3------|||----------|---------|----------|
 B|-3---3--3|-3---3---|-3-------|-3------|||------1--1|-1-------|-----3--0-|
 G|-4---4--4|-4---4---|-4-------|-4------|||*-0---0---|-0-------|-0---0----|
 D|-5---5--5|-5---5---|-5-------|-5------|||*-2---2---|-2-------|-2---3----|
 A|-5---5--5|-5---5---|-5-------|-5------|||--3---3---|-3-------|-3---2----|
 E|-3---3--3|-3---3---|-3-------|-3------|||----------|---------|----------|


   H         Q   E. S  Q   E. S         E S S E.  S   H         Q   E. S
E|---------|--------0|-1---0----------|-------------|---------|---------|
B|-1-------|-----1---|-1---1--3-------|-1-3-1-0---1-|-3-------|-----1--1|
G|-0-------|-0---0---|-2---0----------|-0-----2-----|-4-------|-0---0---|
D|-2-------|-2---2---|----------------|-------------|---------|-2---2---|
A|-3-------|-3---3---|----------------|-------------|---------|-3---3---|
E|---------|---------|-1---1----------|-0-----2-----|-3-------|---------|


   H         Q   E. S   H         Q   E. S  Q   E. S  Q   E. S    H
E|---------|----------|---------|--------0|-3---0---|-----------|--------||
B|-1-------|-----3--0-|-1-------|-----1---|-0---1--1|-----3--5--|-1------||
G|-0-------|-0---0----|-0-------|-0---0---|-0---2---|-2---4-----|-0-----*||
D|-2-------|-2---3----|-2-------|-2---2---|---------|-0---3-----|-2-----*||
A|-3-------|-3---2----|-3-------|-3---3---|-----0---|-----------|-3------||
E|---------|----------|---------|---------|-0-------|-1---3-----|--------||


   Q   E. S         Q   Q     Q   E. S  E S S S E E   Q   E. S         Q   Q
E|-1---0----------|---------|---------|-------------|-1---0----------|----------|
B|-1---1--3-------|---------|-0---1--3|-3-----------|-1---1--3-------|----------|
G|-2---0--2-------|-2---2---|-0---0---|-0-0-0-0-0-0-|-2---0--2-------|-2---2----|
D|--------3-------|-3---3---|-0---2---|-0-----------|--------3-------|-0---0----|
A|----------------|-5---5---|---------|-2-----------|----------------|----------|
E|-1---1----------|---------|-3---3---|-------------|-1---1----------|-1---1----|


   Q   E.  S   H S S S E E    Q   E. S  H         Q   E. S   H         Q   E. S
E|-----------|-------------||---------|---------|----------|---------|--------0|
B|-0---1---3-|-3-----------||-----1--1|-1-------|-----3--0-|-1-------|-----1---|
G|-0---2-----|-4-----------||-0---0---|-0-------|-0---0----|-0-------|-0---0---|
D|-0---0-----|---5-5-5-5-5-||-2---2---|-2-------|-2---3----|-2-------|-2---2---|
A|-----------|-------------||-3---3---|-3-------|-3---2----|-3-------|-3---3---|
E|-3---2-----|-3-----------||---------|---------|----------|---------|---------|


   Q   E. S  Q   E. S    H
E|-3---0---|-----------|---------|
B|-0---1--1|-----3--5--|-1-------|
G|-0---2---|-2---4-----|-0-------|
D|---------|-0---3-----|-2-------|
A|-----0---|-----------|-3-------|
E|-0-------|-1---3-----|---------|



What do all the symbols mean?
-----------------------------

W - whole note (semibreve)
H - half note (minim)
Q - quarter note (crotchet)
E - 8th note (quaver)
S - 16th note (semiquaver)
T - 32nd note (demisemi quaver)
X - 64th note (hemidemisemi quaver)
? - Fret number not defined (note out of range)

If a dot appears after one of the above then it means that the note is 1.5
times as long, e.g. Q. is 3 8th notes long. Two dots means 1.75 times long.

If a '+' sign appears after a note then that note is tied to (held on to) the
next note.

 ______
|1.    | - play bar/s under this sign first time only in repeats

|2.    | - play bar/s under this sign second time only in repeats

|1.3.  | - play bar/s under this sign first and third time only in repeats

||
||*
||*      - Repeat back to this sign
||

 ||
*||
*||      - Repeat from this sign
 ||

|-3-|    - Triplet
Добавлено: 26.08.2015
Другие материалы по этой песне:
  • Аккорды и текст

Страница создана 26.08.2015
http://primanota.ru/richard-wagner/here-comes-bride-chords.htm
Привет, Гость.
Предлагаем пройти революционный курс по гитаре.
Подарок от PrimaNota.Ru, забирай!