PrimaNota.ru - самый крупный в мире бесплатный архив песенных текстов, аккордов, табулатур и нот


Richard Ravnvald - Kaere Lille Mormor - таба, видео

Регистрация Запомнить меня
Войти через:  Facebook Google Twitter Vk Yandex Mail.ru

Richard Ravnvald - Kaere Lille Mormor - таба, видео

Печатать
Просмотров: 80
    _____________________
   /                     /
  /  Richard Ravnvald   /  som spillet live på TV2, Top Charlie i Parken
 /  Kære Lille Mormor  /  https://www.youtube.com/watch?v=rlnLd-iXzlI
/_____________________/




FORSPIL

 G       Em       Am      C/D      G                G
+=---=---=---=---+=---=---=---=---+=---=---=---=---+=---=---=---=---+

Dette er guitaren, der spiller melodien i forspillet:
 Gm      Em       Am      C/D      G                G               (G)
|----------------|----------------|----------------|----------------|--:
|----------------|----------------|----------------|----------------|--:
|4-4-4-4-2---0---|2-2-2-2-0-------|0---------------|----------------|0-:
|----------------|------------4---|----------------|----0---2---4---|--:
|----------------|----------------|----------------|----------------|--:
|----------------|----------------|----------------|----------------|--:




VERS 1

 G                Em               Am               Am
+=---=---=---=---+=---=---=---=---+=---=---=---=---+=---=---=---=---+
"Igennem livet har du gjort, hvad du ku'

 D                D                G                  ( G   Gb  F )
+=---=---=---=---+=---=---=---=---+=---=---=---=---+=---=---=---=---+
 Og mere til - det ved jeg nu

 E7               E7               Am               Am
+=---=---=---=---+=---=---=---=---+=---=---=---=---+=---=---=---=---+
 Skønt midlerne var små, var dit hjerte et som få

 A                A                A                D
+=---=---=---=---+=---=---=---=---+=---=---=---=---+=---=---=---=---+
 Du var trofast og ærlig, håndfast og kærlig; det tænker jeg nu på


Dette er de to breaks og basgangen i versets sidste linje:
 A         !      A         !      A                D               (G)
|----------5-----|----------5-----|----------------|----------------|--:
|----------5-----|----------5-----|----------------|----------------|--:
|----------6-----|----------6-----|----------------|----------------|0-:
|----------------|----------------|----------------|0---0---2---4---|--:
|----------------|----------------|0---0---2---4---|----------------|--:
|----------------|----------------|----------------|----------------|--:




OMKVÆD 1

 G                D/G              G       Bm7      C
+=---=---=---=---+=---=---=---=---+=---=---=---=---+=---=---=---=---+
"Kære lille Mormor, kære lille Mormor, tillykke med din fødselsdag

 Am7              D7               C       D7       G
+=---=---=---=---+=---=---=---=---+=---=---=---=---+=---=---=---=---+
 Ingen har som du fortjent det; en dag med fest og solskinsvejr

 G                F/G     G7       C                Cm
+=---=---=---=---+=---=---=---=---+=---=---=---=---+=---=---=---=---+
 Du skal ha' sange og blomster; så skal der hejses et flag

 G       Em       C       D        G                G
+=---=---=---=---+=---=---=---=---+=---=---=---=---+=---=---=---=---+
 Kære lille Mormor, tillykke med din fødselsdag




VERS 2

"Årene er gået, dem har du bygget på
 Der' stadig ting, du absolut vil nå
 Skønt du sku' slappe af, er der en hjertesag
 Du er trofast og ærlig, håndfast og kærlig; hvad sku' vi gøre uden dig




OMKVÆD 2

Efter G-Em-C-D spilles denne opgang, og sangen modulerer op til Ab dur:
 G               (Ab)
|--- ------------|--:
|--- ------------|--:
|--- ------------|--:
|--- ----3---5---|6-:
|--- 6-----------|--:
|3-- ------------|--:




OMKVÆD 3

 Ab               Eb/Ab            Ab      Cm7      Db
+=---=---=---=---+=---=---=---=---+=---=---=---=---+=---=---=---=---+

 Bbm7             Eb7              Db      Eb7      Ab
+=---=---=---=---+=---=---=---=---+=---=---=---=---+=---=---=---=---+

 Ab               Gb/Ab   Ab7      Db               Dbm
+=---=---=---=---+=---=---=---=---+=---=---=---=---+=---=---=---=---+

 Ab      Fm       Db      Eb       Ab                       Dbm
+=---=---=---=---+=---=---=---=---+=---=---=---=---+=---=---=---=---+

 Ab/C    Fm       Db      Eb       Db               Ab
+=---=---=---=---+=---=---=---=---+=---=---=---=---+=...



------------------------------------------------------------------------------
 21st /July /2015
 Just mail me at Maitinin@gmail.com with questions, comments and corrections!
------------------------------------------------------------------------------



 " Maitinin writing here - the author of this tab.

   The past 11 years, I have generated 10,318,000 views and 815 top-rated tabs for this site.
   If you want to support an eager contributor like me, check out my own site:


   _____   PlayLiketheGreats.com   _____


   Here I will continue to upload and improve my transcriptions.

   Best regards,
   Maitinin "
Добавлено: 28.10.2015
Другие материалы по этой песне:
  • Аккорды и текст

Страница создана 28.10.2015
http://primanota.ru/richard-ravnvald/kaere-lille-mormor-chords.htm
Привет, Гость.
Предлагаем пройти революционный курс по гитаре.
Подарок от PrimaNota.Ru, забирай!