PrimaNota.ru - самый крупный в мире бесплатный архив песенных текстов, аккордов, табулатур и нот


Richard Pike - It Takes Over You - аккорды и текст, видео

Регистрация Запомнить меня
Войти через:  Facebook Google Twitter Vk Yandex Mail.ru

Richard Pike - It Takes Over You - аккорды и текст, видео

Печатать
Просмотров: 76
It Takes Over You
Richard Pike
SONG:   IT TAKES OVER YOU
        (NATIONAL GEOGRAPHIC THEME SONG)
ARTIST: RICHARD PIKE
TAB BY: DON CZARSKI
EAIL:   GUITARZAN7@HOTMAIL.COM


                IT TAKES OVER YOU
         (NATIONAL GEOGRAPHIC THEME SONG)
                  RICHARD PIKE

INTRO:   
                      
   D    C         D     G   Bb    A A  F7M   G D    
E -------------------------------------------------
B -------------------------------------------------
G -7----5\3-2--0----------------0------------------
D ---7------------4--0---0-2-3----2----------------
A ----------------------------------3--------------
E ---------------------------------------0--2-3-0--


   D    C         D     G   Bb    A A  F7M   G D    
E -------------------------------------------------
B -------------------------------------------------
G -7----5\3-2--0----------------0------------------
D ---7------------4--0---0-2-3----2----------------
A ----------------------------------3--------------
E ---------------------------------------0--2-3-0--


VERSE:
Em    D      A
   I see my fate. 
Em       D            A
   The world and its circular ways.
Em       D       A
   There is no break. 
Em      D          A    
   No fiery sun allowed to fade.
    Bb   C     G
It takes over you


VERSE:
Em       D      A
   There is no wait. 
Em    D            A
   A moth dressed as a butterfly.
Em    D       A
   A static state. 
Em     D        A
   Gravity I'm bound to obey.
    Bb   C     G      Bb     G       D  
It takes over you and everything you do.
    Bb   C     G      Bb     G       D
It takes over you and everything you do


OUTRO:       
                       
   D    C         D      G  Bb    A A  D                              
E -------------------------------------2------
B -------------------------------------3------
G -7----5\3-2--0----------------0------2------
D ---7------------4--0---0-2-3----2-----------
A ----------------------------------3---------
E --------------------------------------------
Добавлено: 16.12.2015
Другие материалы по этой песне:
  • Аккорды и текст

Страница создана 16.12.2015
http://primanota.ru/richard-pike/it-takes-over-you-chords.htm
Привет, Гость.
Предлагаем пройти революционный курс по гитаре.
Подарок от PrimaNota.Ru, забирай!