PrimaNota.ru - самый крупный в мире бесплатный архив песенных текстов, аккордов, табулатур и нот


Richard Marx And Donna Lewis - At The Beginning - таба, видео

Регистрация Запомнить меня
Войти через:  Facebook Google Twitter Vk Yandex Mail.ru

Richard Marx And Donna Lewis - At The Beginning - таба, видео

Печатать
Просмотров: 128
Уроки эстрадного вокала в Санкт-Петербурге
-------------------------------------------------------------------------------
                             At the beginning with you- Richard Marx and Donna Lewis
-------------------------------------------------------------------------------
Tabbed by:Marie 
E-mail:

Tuning:Standard tuning 
The chords I used to make this tab is in this link :
http://tabs.ultimate-guitar.com/r/richard_marx/at_the_beginning_crd.htm
 capo 2

for the first part, use the C chord for easier plucking
e|----------0-1----------0------------------0--1------------0----------------|
B|-1-1-1-3----3-----1h3----1---1---1---1-3-----3-------1h3-----1--1----------|
G|-0----------3-----0----------2---0-----------3-------0----------2----------|
D|-----------------------------3----------------------------------3----------|
A|-3----------------3--------------3-------------------3---------------------|
E|---------------------------------------------------------------------------|
 use the chords at the link above to continue the song after this solo ^_^

All copyrights to the respected owner. 




************************************

| /   slide up
| \   slide down
| h   hammer-on
| p   pull-off
| ~   vibrato
| +   harmonic
| x   Mute note
| b   Bend
| pb  Pre-bend
| br  Bend release
| pbr Pre-bend release
| brb Bend release bend

************************************
Добавлено: 27.12.2015
Другие материалы по этой песне:
  • Аккорды и текст

Страница создана 27.12.2015
http://primanota.ru/richard-marx-and-donna-lewis/at-beginning-chords.htm
Привет, Гость.
Предлагаем пройти революционный курс по гитаре.
Подарок от PrimaNota.Ru, забирай!