PrimaNota.ru - самый крупный в мире бесплатный архив песенных текстов, аккордов, табулатур и нот


Richard Hell - Love Comes In Spurts - аккорды и текст, таба, видео

Регистрация Запомнить меня
Войти через:  Facebook Google Twitter Vk Yandex Mail.ru

Richard Hell - Love Comes In Spurts - аккорды и текст, таба, видео

Печатать
Просмотров: 103
Уроки эстрадного вокала в Санкт-Петербурге
Авторы музыки: Richard Hell

Love Comes In Spurts
Richard Hell
		   This Is the Version on time

Intro                                              Just Power Pords
E--------------------)--------------------)--------------------)--------------------)):
G--------------------)--------------------)--------------------)--------------------)):
D----5--------5------)----7--------7------)----10-------10-----)----12--------12----)):
A----3--------3------)----5--------5------)----8--------8------)----10--------10----)):
E--------------------)--------------------)--------------------)--------------------)):

Verse 1
E--------------------)--------------------)--------------------)--------------------)
G--------------------)--------------------)--------------------)--------------------)
D----5--5--5--5--5---)--7--7--7--7--7-----)--10--10--10--10--10)--12--12--12--12--12)
A----3--3--3--3--3---)--5--5--5--5--5-----)---8---8---8---8---8)--10--10--10--10--10)
E--------------------)--------------------)--------------------)--------------------)

E--------------------)--------------------)--------------------)--------------------)
G--------------------)--------------------)--------------------)--------------------)
D----5--5--5--5--5---)--7--7--7--7--7-----)--10--10--10--10--10)--12--12--12--12--12)
A----3--3--3--3--3---)--5--5--5--5--5-----)---8---8---8---8---8)--10--10--10--10--10)
E--------------------)--------------------)--------------------)--------------------)


Chorus
Love comes in sperts   Some times it hurts         Oh Yes It HURTS>>
E--------------------)--------------------)):--------------------)--------------------
G--------------------)--------------------)):--------------------)--------------------
D---5--5--5--5--5----)--------------------)):--------------------)--------------------
A---3--3--3--3--3----)---3--3--3--3--3----)):---3>>>>>>>>>>>>>>>>)>>>>>>>>>>>>>>>>>>>>
E--------------------)---1--1--1--1--1----)):---5>>>>>>>>>>>>>>>>)>>>>>>>>>>>>>>>>>>>>
    ^^^^^^^^^^^^^^ 3 Times ^^^^^^^^^^^

Verse 2
E--------------------)--------------------)--------------------)--------------------)
G--------------------)--------------------)--------------------)--------------------)
D----5--5--5--5--5---)--7--7--7--7--7-----)--10--10--10--10--10)--12--12--12--12--12)
A----3--3--3--3--3---)--5--5--5--5--5-----)---8---8---8---8---8)--10--10--10--10--10)
E--------------------)--------------------)--------------------)--------------------)

E--------------------)--------------------)--------------------)--------------------)
G--------------------)--------------------)--------------------)--------------------)
D----5--5--5--5--5---)--7--7--7--7--7-----)--10--10--10--10--10)--12--12--12--12--12)
A----3--3--3--3--3---)--5--5--5--5--5-----)---8---8---8---8---8)--10--10--10--10--10)
E--------------------)--------------------)--------------------)--------------------)


Chorus
Love comes in sperts   Some times it hurts         Oh Yes It HURTS>>
E--------------------)--------------------)):--------------------)--------------------
G--------------------)--------------------)):--------------------)--------------------
D---5--5--5--5--5----)--------------------)):--------------------)--------------------
A---3--3--3--3--3----)---3--3--3--3--3----)):---3>>>>>>>>>>>>>>>>)>>>>>>>>>>>>>>>>>>>>
E--------------------)---1--1--1--1--1----)):---5>>>>>>>>>>>>>>>>)>>>>>>>>>>>>>>>>>>>>
    ^^^^^^^^^^^^^^ 3 Times ^^^^^^^^^^^

SOLO                     Rythem Guitar just does verse until the end
E---8----------------)---10----------------)---13----------------)---15---------------)
G---8--- ( 5X )------)---10--- ( 5X )------)---13--- ( 5X )------)---15--- ( 5X )-----)
D--10//--------------)--12//---------------)--15//---------------)--17//--------------)
A--------------------)---------------------)---------------------)--------------------)
E--------------------)---------------------)---------------------)--------------------)

E---8----------------)---10----------------)---13----------------)---15---------------)
G---8--- ( 5X )------)---10--- ( 5X )------)---13--- ( 5X )------)---15--- ( 5X )-----)
D--10//--------------)--12//---------------)--15//---------------)--17//--------------)
A--------------------)---------------------)---------------------)--------------------)
E--------------------)---------------------)---------------------)--------------------)
          Every One STOP
E---8----------------)---10----------------)---13----------------)---15---------------)
G---8--- ( 5X )------)---10--- ( 5X )------)---13--- ( 5X )------)---15--- (hold)-----)
D--10//--------------)--12//---------------)--15//---------------)--17//--------------)
A--------------------)---------------------)---------------------)--------------------)
E--------------------)---------------------)---------------------)--------------------)

Verse 2
E--------------------)--------------------)--------------------)--------------------)
G--------------------)--------------------)--------------------)--------------------)
D----5--5--5--5--5---)--7--7--7--7--7-----)--10--10--10--10--10)--12--12--12--12--12)
A----3--3--3--3--3---)--5--5--5--5--5-----)---8---8---8---8---8)--10--10--10--10--10)
E--------------------)--------------------)--------------------)--------------------)

E--------------------)--------------------)--------------------)--------------------)
G--------------------)--------------------)--------------------)--------------------)
D----5--5--5--5--5---)--7--7--7--7--7-----)--10--10--10--10--10)--12--12--12--12--12)
A----3--3--3--3--3---)--5--5--5--5--5-----)---8---8---8---8---8)--10--10--10--10--10)
E--------------------)--------------------)--------------------)--------------------)


Chorus
Love comes in sperts   Some times it hurts         Oh Yes It HURTS>>
E--------------------)--------------------)):--------------------)--------------------
G--------------------)--------------------)):--------------------)--------------------
D---5--5--5--5--5----)--------------------)):--------------------)--------------------
A---3--3--3--3--3----)---3--3--3--3--3----)):---3>>>>>>>>>>>>>>>>)>>>>>>>>>>>>>>>>>>>>
E--------------------)---1--1--1--1--1----)):---5>>>>>>>>>>>>>>>>)>>>>>>>>>>>>>>>>>>>>
    ^^^^^^^^^^^^^^ 8 Times ^^^^^^^^^^^     
Добавлено: 16.11.2013
Вам также может быть интересно:
Другие материалы по этой песне:

Страница создана 10.07.2012
http://primanota.ru/richard-hell/love-comes-in-spurts-chords.htm
Привет, Гость.
Предлагаем пройти революционный курс по гитаре.
Подарок от PrimaNota.Ru, забирай!