PrimaNota.ru - самый крупный в мире бесплатный архив песенных текстов, аккордов, табулатур и нот


Richard Hell And The Voidoids - Im Your Man - таба, бас-таба, видео

Регистрация Запомнить меня
Войти через:  Facebook Google Twitter Vk Yandex Mail.ru

Richard Hell And The Voidoids - Im Your Man - таба, бас-таба, видео

Печатать
Просмотров: 85
-------------------------------------------------------------------------------
                I'M YOUR MAN - Richard Hell And The Voidoids
-------------------------------------------------------------------------------
Tabbed by: Tom
E-mail: littlenevridinghood@hotmail.co.uk

This is the tab for the first solo of the song. There is a great guitar tab for
this song elsewhere on UG (by primusfan), which I recommend you check out, but
I found the solos difficult to interpret.

I tabbed this solo by ear, and I am a bassist (and not a particularly skilled
one at that) so as always, take this with a pinch of salt.

Listen to the song for timings.

Tuning: Standard

e|-4-0--------------4-0------------------------5-4-2-------------------------|
B|-------4-2-0-1--2-------4-2---1-2-2-----5--5-------5-5-4-2-1-------2---2-2-|
G|------------------------------------1-2----------------------1---4---4-----|
D|---------------------------------------------------------------------------|
A|---------------------------------------------------------------------------|
E|---------------------------------------------------------------------------|
  1:08                        1:11                           1:16
e|--b4b4b4b4br---------------------------------------------------------------|
B|-5---------5--------------------------5--4---------------------------------|
G|-------------6-4-----------------------------------------------------------|
D|-----------------6-4-------------------------------------------------------|
A|---------------------7-4--7-4----------------------------------------------|
E|------------------------------7-4-2-0--------------------------------------|
    1:18                             1:21

************************************

| /   slide up
| \   slide down
| h   hammer-on
| p   pull-off
| ~   vibrato
| +   harmonic
| x   Mute note
| b   Bend
| pb  Pre-bend
| br  Bend release
| pbr Pre-bend release
| brb Bend release bend

************************************
Добавлено: 04.11.2015
Другие материалы по этой песне:
  • Аккорды и текст

Страница создана 13.08.2014
http://primanota.ru/richard-hell-and-voidoids/im-your-man-chords.htm
Привет, Гость.
Предлагаем пройти революционный курс по гитаре.
Подарок от PrimaNota.Ru, забирай!