PrimaNota.ru - самый крупный в мире бесплатный архив песенных текстов, аккордов, табулатур и нот


Richard Hawley - For Your Lover Give Some Time - таба, видео

Регистрация Запомнить меня
Войти через:  Facebook Google Twitter Vk Yandex Mail.ru

Richard Hawley - For Your Lover Give Some Time - таба, видео

Печатать
Просмотров: 84
Авторы музыки: Richard Hawley
Авторы текста: Richard Hawley
-------------------------------------------------------------------------------
                             FOR YOUR LOVER GIVE SOME TIME - Richard Hawley
-------------------------------------------------------------------------------
Tabbed by: Harry May
Email: harrypmay@gmail.com

Tuning: Standard (EADGBe)

A7m: x06654
A6: x04670
G7m: 3x4432
A7m 2: x02120
A6 2: x04220
Bm: 799777
G#m7/5-: 4x4434
F#m: 244222
F#m/E: 044222
Bm 2: x24432
E: 022100
D6: x5420x
Dm6: x5320x

This is my version of the beautiful song 'For Your Lover Give Some Time' by the
underrated Richard Hawley. Some of the chord names are wrong but because of the
fingering I
wasn't sure what they could be. The guitar starts at '...birthday yesterday.' Thanks for
looking at my tab and hopefully you think it's accurate enough.

VERSE 1:

  A7m                                A6
e|-4-------4-------4-------4--------|-------0-------0-------0-------0--|
B|-------5-------5-------5-------5--|-7-------7-------7-------7--------|
G|-----6-------6-------6-------6----|-----6-------6-------6-------6----|
D|---6-------6-------6-------6------|---4-------4-------4-------4------|
A|-0-------0-------0-------0--------|-0-------0-------0-------0--------|
E|----------------------------------|----------------------------------|

  G7m                                A7m 2             A6 2
 |-2-------2-------2-------2--------|-0-------0-------0-------0--------|
 |-------3-------3-------3-------3--|-------2-------2-------2-------2--|
 |-----4-------4-------4-------4----|-----1-------1-------2-------2----|
 |---4-------4-------4-------4------|---2-------2-------4-------4------|
 |----------------------------------|-0-------0-------0-------0--------|
 |-3-------3-------3-------3--------|----------------------------------|

  A7m                                A6
 |-4-------4-------4-------4--------|-------0-------0-------0-------0--|
 |-------5-------5-------5-------5--|-7-------7-------7-------7--------|
 |-----6-------6-------6-------6----|-----6-------6-------6-------6----|
 |---6-------6-------6-------6------|---4-------4-------4-------4------|
 |-0-------0-------0-------0--------|-0-------0-------0-------0--------|
 |----------------------------------|----------------------------------|

  G7m                                A7m 2             A6 2
 |-2-------2-------2-------2--------|-0-------0-------0-------0--------|
 |-------3-------3-------3-------3--|-------2-------2-------2-------2--|
 |-----4-------4-------4-------4----|-----1-------1-------2-------2----|
 |---4-------4-------4-------4------|---2-------2-------4-------4------|
 |----------------------------------|-0-------0-------0-------0--------|
 |-3-------3-------3-------3--------|----------------------------------|

CHORUS:

  Bm                                 A7m
 |-7-------7-------7-------7--------|-4-------4-------4-------4--------|
 |-------7-------7-------7-------7--|-------5-------5-------5-------5--|
 |-----7-------7-------7-------7----|-----6-------6-------6-------6----|
 |---9-------9-------9-------9------|---6-------6-------6-------6------|
 |----------------------------------|-0-------0-------0-------0--------|
 |-7-------7-------7-------7--------|----------------------------------|

  G#m7/5-                            F#m               F#m/E
 |-4-------4-------4-------4--------|-2-------2-------2-------2--------|
 |-------3-------3-------3-------3--|-------2-------2-------2-------2--|
 |-----4-------4-------4-------4----|-----2-------2-------2-------2----|
 |---4-------4-------4-------4------|---4-------4-------4-------4------|
 |----------------------------------|----------------------------------|
 |-4-------4-------4-------4--------|-2-------2-------0-------0--------|

  Bm                                 A7m
 |-7-------7-------7-------7--------|-4-------4-------4-------4--------|
 |-------7-------7-------7-------7--|-------5-------5-------5-------5--|
 |-----7-------7-------7-------7----|-----6-------6-------6-------6----|
 |---9-------9-------9-------9------|---6-------6-------6-------6------|
 |----------------------------------|-0-------0-------0-------0--------|
 |-7-------7-------7-------7--------|----------------------------------|

  G#m7/5-                            A7m 2            A6 2
 |-4-------4-------4-------4--------|-0-------0-------0-------0--------|
 |-------3-------3-------3-------3--|-------2-------2-------2-------2--|
 |-----4-------4-------4-------4----|-----1-------1-------2-------2----|
 |---4-------4-------4-------4------|---2-------2-------4-------4------|
 |----------------------------------|-0-------0-------0-------0--------|
 |-4-------4-------4-------4--------|----------------------------------|

BREAK:

  A7m                                A6
 |-4-------4-------4-------4--------|-------0-------0-------0-------0--|
 |-------5-------5-------5-------5--|-7-------7-------7-------7--------|
 |-----6-------6-------6-------6----|-----6-------6-------6-------6----|
 |---6-------6-------6-------6------|---4-------4-------4-------4------|
 |-0-------0-------0-------0--------|-0-------0-------0-------0--------|
 |----------------------------------|----------------------------------|

  G7m                                A7m 2             A6 2
 |-2-------2-------2-------2--------|-0-------0-------0-------0--------|
 |-------3-------3-------3-------3--|-------2-------2-------2-------2--|
 |-----4-------4-------4-------4----|-----1-------1-------2-------2----|
 |---4-------4-------4-------4------|---2-------2-------4-------4------|
 |----------------------------------|-0-------0-------0-------0--------|
 |-3-------3-------3-------3--------|----------------------------------|

VERSE 2:

  A7m                                A6
 |-4-------4-------4-------4--------|-------0-------0-------0-------0--|
 |-------5-------5-------5-------5--|-7-------7-------7-------7--------|
 |-----6-------6-------6-------6----|-----6-------6-------6-------6----|
 |---6-------6-------6-------6------|---4-------4-------4-------4------|
 |-0-------0-------0-------0--------|-0-------0-------0-------0--------|
 |----------------------------------|----------------------------------|

  G7m                                A7m 2             A6 2
 |-2-------2-------2-------2--------|-0-------0-------0-------0--------|
 |-------3-------3-------3-------3--|-------2-------2-------2-------2--|
 |-----4-------4-------4-------4----|-----1-------1-------2-------2----|
 |---4-------4-------4-------4------|---2-------2-------4-------4------|
 |----------------------------------|-0-------0-------0-------0--------|
 |-3-------3-------3-------3--------|----------------------------------|

  A7m                                A6
 |-4-------4-------4-------4--------|-------0-------0-------0-------0--|
 |-------5-------5-------5-------5--|-7-------7-------7-------7--------|
 |-----6-------6-------6-------6----|-----6-------6-------6-------6----|
 |---6-------6-------6-------6------|---4-------4-------4-------4------|
 |-0-------0-------0-------0--------|-0-------0-------0-------0--------|
 |----------------------------------|----------------------------------|

  G7m                                A7m 2             A6 2
 |-2-------2-------2-------2--------|-0-------0-------0-------0--------|
 |-------3-------3-------3-------3--|-------2-------2-------2-------2--|
 |-----4-------4-------4-------4----|-----1-------1-------2-------2----|
 |---4-------4-------4-------4------|---2-------2-------4-------4------|
 |----------------------------------|-0-------0-------0-------0--------|
 |-3-------3-------3-------3--------|----------------------------------|

VERSE 3:

  A7m                                A6
 |-4-------4-------4-------4--------|-------0-------0-------0-------0--|
 |-------5-------5-------5-------5--|-7-------7-------7-------7--------|
 |-----6-------6-------6-------6----|-----6-------6-------6-------6----|
 |---6-------6-------6-------6------|---4-------4-------4-------4------|
 |-0-------0-------0-------0--------|-0-------0-------0-------0--------|
 |----------------------------------|----------------------------------|

  G7m                                A7m 2             A6 2
 |-2-------2-------2-------2--------|-0-------0-------0-------0--------|
 |-------3-------3-------3-------3--|-------2-------2-------2-------2--|
 |-----4-------4-------4-------4----|-----1-------1-------2-------2----|
 |---4-------4-------4-------4------|---2-------2-------4-------4------|
 |----------------------------------|-0-------0-------0-------0--------|
 |-3-------3-------3-------3--------|----------------------------------|

  A7m                                A6
 |-4-------4-------4-------4--------|-------0-------0-------0-------0--|
 |-------5-------5-------5-------5--|-7-------7-------7-------7--------|
 |-----6-------6-------6-------6----|-----6-------6-------6-------6----|
 |---6-------6-------6-------6------|---4-------4-------4-------4------|
 |-0-------0-------0-------0--------|-0-------0-------0-------0--------|
 |----------------------------------|----------------------------------|

  G7m                                A7m 2             A6 2
 |-2-------2-------2-------2--------|-0-------0-------0-------0--------|
 |-------3-------3-------3-------3--|-------2-------2-------2-------2--|
 |-----4-------4-------4-------4----|-----1-------1-------2-------2----|
 |---4-------4-------4-------4------|---2-------2-------4-------4------|
 |----------------------------------|-0-------0-------0-------0--------|
 |-3-------3-------3-------3--------|----------------------------------|

VERSE 4:

  A7m                                A6
 |-4-------4-------4-------4--------|-------0-------0-------0-------0--|
 |-------5-------5-------5-------5--|-7-------7-------7-------7--------|
 |-----6-------6-------6-------6----|-----6-------6-------6-------6----|
 |---6-------6-------6-------6------|---4-------4-------4-------4------|
 |-0-------0-------0-------0--------|-0-------0-------0-------0--------|
 |----------------------------------|----------------------------------|

  G7m                                A7m 2             A6 2
 |-2-------2-------2-------2--------|-0-------0-------0-------0--------|
 |-------3-------3-------3-------3--|-------2-------2-------2-------2--|
 |-----4-------4-------4-------4----|-----1-------1-------2-------2----|
 |---4-------4-------4-------4------|---2-------2-------4-------4------|
 |----------------------------------|-0-------0-------0-------0--------|
 |-3-------3-------3-------3--------|----------------------------------|

  A7m                                A6
 |-4-------4-------4-------4--------|-------0-------0-------0-------0--|
 |-------5-------5-------5-------5--|-7-------7-------7-------7--------|
 |-----6-------6-------6-------6----|-----6-------6-------6-------6----|
 |---6-------6-------6-------6------|---4-------4-------4-------4------|
 |-0-------0-------0-------0--------|-0-------0-------0-------0--------|
 |----------------------------------|----------------------------------|

  G7m                                A7m 2             A6 2
 |-2-------2-------2-------2--------|-0-------0-------0-------0--------|
 |-------3-------3-------3-------3--|-------2-------2-------2-------2--|
 |-----4-------4-------4-------4----|-----1-------1-------2-------2----|
 |---4-------4-------4-------4------|---2-------2-------4-------4------|
 |----------------------------------|-0-------0-------0-------0--------|
 |-3-------3-------3-------3--------|----------------------------------|

  Bm                                 A7m
 |-7-------7-------7-------7--------|-4-------4-------4-------4--------|
 |-------7-------7-------7-------7--|-------5-------5-------5-------5--|
 |-----7-------7-------7-------7----|-----6-------6-------6-------6----|
 |---9-------9-------9-------9------|---6-------6-------6-------6------|
 |----------------------------------|-0-------0-------0-------0--------|
 |-7-------7-------7-------7--------|----------------------------------|

  G#m7/5-                            F#m              F#m/E
 |-4-------4-------4-------4--------|-2-------2-------2-------2--------|
 |-------3-------3-------3-------3--|-------2-------2-------2-------2--|
 |-----4-------4-------4-------4----|-----2-------2-------2-------2----|
 |---4-------4-------4-------4------|---4-------4-------4-------4------|
 |----------------------------------|----------------------------------|
 |-4-------4-------4-------4--------|-2-------2-------0-------0--------|

  Bm                                 A7m
 |-7-------7-------7-------7--------|-4-------4-------2-------2--------|
 |-------7-------7-------7-------7--|-------5-------5-------2-------2--|
 |-----7-------7-------7-------7----|-----6-------6-------2-------2----|
 |---9-------9-------9-------9------|---6-------6-------4-------4------|
 |----------------------------------|-0-------0------------------------|
 |-7-------7-------7-------7--------|-----------------2-------2--------|

  Bm 2             E                 D6               Dm6
 |-2-------2-------0-------0--------|-0--------------------------------|
 |-------3-------3-------0-------0--|-------0-1-0-----0~---------------|
 |-----4-------4-------1-------1----|-----2-------2---2~---------------|
 |---4-------4-------2-------2------|---4-----------4-3~---------------|
 |-2-------2------------------------|-5---------------5~---------------|
 |-----------------0-------0--------|----------------------------------|

OUTRO:

  A7m 2                               Bm
 |-0-------0-------0-------0--------|-7-------7-------7-------7--------|
 |-------2-------2-------2-------2--|o------7-------7-------7-------7--|
 |-----1-------1-------1-------1----|-----7-------7-------7-------7----|
 |---2-------2-------2-------2------|---9-------9-------9-------9------|
 |-0-------0-------0-------0--------|o---------------------------------|
 |----------------------------------|-7-------7-------7-------7--------|

  G7m                                 G#m7/5-
 |-4-------4-------4-------4--------|-4-------4-------4-------4--------|
 |-------5-------5-------5-------5--|-------3-------3-------3-------3--|
 |-----6-------6-------6-------6----|-----4-------4-------4-------4----|
 |---6-------6-------6-------6------|---4-------4-------4-------4------|
 |-0-------0-------0-------0--------|----------------------------------|
 |----------------------------------|-4-------4-------4-------4--------|

  F#m              F#m/E
 |-2-------2-------2-------2--------| |-                    -|
 |-------2-------2-------2-------2-o| |o Repeat everything  o|
 |-----2-------2-------2-------2----| |- within these marks -|
 |---4-------4-------4-------4------| |-     until fade     -|
 |---------------------------------o| |o                    o|
 |-2-------2-------0-------0--------| |-                    -|

(Verse 1)
It was your birthday yesterday
I gave a gift that almost took your breath away
But to be honest I nearly left it on the train
For your lover give some time
You talk forever on the phone
To your mother and with my thoughts I'm left alone
Now and then I think 'how strange our love has grown'
For your lover give some time

(Chorus)
I will give up these cigarettes
Stay at home and watch you mend the tears in your dress
Have your name in a rose tattooed across my chest
And be your lover for all time

Maybe I will drink a little less
Come home early and not complain about the death
And give you flowers from the graveyard now and then
For your lover give some time

(Break)

(Verse 2)
I think of places that I've seen
A skipping stone across the ocean I have been
A rootless man with no one else to share my dream
And for my lover gave no time

(Verse 3)
Here's is a toast to you Helene
To all the cinemas we ran in from the rain
Laughing clutching soaking newspapers to your face
And for your love you gave some time

(Verse 4)
I will give up these cigarettes
Stay at home and watch you mend the tears in your dress
Have your name in a rose tattooed across my chest
And be your lover for all time

Maybe I will drink a little less
Come home early and not complain about the death
And give you flowers from the graveyard now and then
And for my lover give some time
For your lover give some time

(Outro)
Добавлено: 30.11.2013
Другие материалы по этой песне:

Страница создана 06.04.2012
http://primanota.ru/richard-hawley/for-your-lover-give-some-time-chords.htm
Привет, Гость.
Предлагаем пройти революционный курс по гитаре.
Подарок от PrimaNota.Ru, забирай!