PrimaNota.ru - самый крупный в мире бесплатный архив песенных текстов, аккордов, табулатур и нот


Richard Gotainer - Tout Foufou - таба, видео

Регистрация Запомнить меня
Войти через:  Facebook Google Twitter Vk Yandex Mail.ru

Richard Gotainer - Tout Foufou - таба, видео

Печатать
Просмотров: 94
Авторы музыки: Claude Engel
Авторы текста: Richard Gotainer
Tout foufou
From the album "Contes de travioles" 1979
music: Claude Engel
lyrics: Richard Gotainer

Capo 2nd fret

e|-------------------------------------------------------------------------------|
B|---3-------------------1-------1-------3-------------------1--------1----------|
G|-------0-------------------0-------0-------0-------------------0--------0------|
D|-----0-------0-----0-----0-------0-------0-------0-----0-----0--------0--------|
A|---------1h3---3h5---0-----------------------1h3---3h5-------------------------|
E|3---------------------------2-------3-------------------0---------2------------|

e|--3-3--3-3-----3---3-3----3-3--3-3---3---3-3-----------------------------------|
B|--0-0--1-1-----0---1-1----0-0--1-1---0---1-1-----------------------------------|
G|--0-0--2-2-----0---2-2----0-0--2-2---0---2-2-----------------------------------|
D|--0-0--0-0-----0---0-0----0-0--0-0---0---0-0-----------------------------------|
A|-------------------------------------------------------------------------------|
E|3-----------3----3------3----------3---3---------------------------------------|



This is only the acoustic part, there's an electric guitar playing on top of that.

Here is a link with a lesson from Claude Engel, composer of the music which helped 
me a lot to figure out the notes: www.youtube.com/watch?v=OLZtFoaZ2bI

This is my first tab, i hope it's not too bad
Добавлено: 03.01.2016
Вам также может быть интересно:
Другие материалы по этой песне:
  • Аккорды и текст

Страница создана 03.01.2016
http://primanota.ru/richard-gotainer/tout-foufou-chords.htm
Привет, Гость.
Предлагаем пройти революционный курс по гитаре.
Подарок от PrimaNota.Ru, забирай!