PrimaNota.ru - самый крупный в мире бесплатный архив песенных текстов, аккордов, табулатур и нот


Richard Clayderman - Romance - таба, видео

Регистрация Запомнить меня
Войти через:  Facebook Google Twitter Vk Yandex Mail.ru

Richard Clayderman - Romance - таба, видео

Печатать
Просмотров: 356
Tab by: Gerardo Torres 

titonator@wi.rr.com                      
                  
                       Spanish Ballad/Romance  
Part A

I am 13 years old and this is my first tab i hope i didn't mess up.


E--7------7------7------)--7------5------3------)--3------2------0------)
B----0------0------0----)----0------0------0----)----0------0------0----)
G------0------0------0--)------0------0------0--)------0------0------0--)
D-----------------------)-----------------------)-----------------------)
A-----------------------)-----------------------)-----------------------)
E--0--------------------)--0--------------------)--0--------------------)

E—-0------3------7------)--12-----12-----12-----)--12-----10-----8------) 
B----0------0------0----)----0------0------0----)----0-------0-----0----)
G------0------0------0--)------0------0------0--)------0-------0-----0--)
D-----------------------)-----------------------)-----------------------)
A-----------------------)-----------------------)-----------------------)
E--0--------------------)--0--------------------)--0--------------------)
  
E--8------7------5------)--5------7------8------)--7------8------7------)
B----5------5------5----)----5------5------5----)----7------7------7----)
G------5------5------5--)------5------5------5--)------8------8------8--)
D-----------------------)-----------------------)-----------------------)
A--0--------------------)--0--------------------)-----------------------)
E-----------------------)-----------------------)--7--------------------)

E—-11-----8------7------)--7------5------3------)--3------2------0------)
B----7------7------7----)----0------0------0----)----0------0------0----)
G------8------8------8--)------0------0------0--)------0------0------0--)
D-----------------------)-----------------------)-----------------------)
A-----------------------)-----------------------)-----------------------)
E--7--------------------)--0--------------------)--0--------------------)
    
E--2------2------2------)--2------3------2------)--0------0------0------)
B----0------0------0----)----0------0------0----)----0------0------0----)
G------2------2------2--)------2------2------2--)------0------0------0--)
D-----------------------)--2--------------------)--2--------------------)
A--2--------------------)-----------------------)---------2-------------)
E-----------------------)-----------------------)----------------3------)

E-0=====================)-----------------------)
B-0=====================)---------0-7-----------)
G-0=====================)-----------------------)
D-----------------------)-----------------------)
A-----------------------)-----------------------)
E-0=====================)-----------------------)


E--7------7------7------)--7------5------3------)--3------2------0------)
B----0------0------0----)----0------0------0----)----0------0------0----)
G------0------0------0--)------0------0------0--)------0------0------0--)
D-----------------------)-----------------------)-----------------------)
A-----------------------)-----------------------)-----------------------)
E--0--------------------)--0--------------------)--0--------------------)

E—-0------3------7------)--12-----12-----12-----)--12-----10-----8------)
B----0------0------0----)----0------0------0----)----0-------0-----0----)
G------0------0------0--)------0------0------0--)------0-------0-----0--)
D-----------------------)-----------------------)-----------------------)
A-----------------------)-----------------------)-----------------------)
E--0--------------------)--0--------------------)--0--------------------)
  
E--8------7------5------)--5------7------8------)--7------8------7------)
B----5------5------5----)----5------5------5----)----7------7------7----)
G------5------5------5--)------5------5------5--)------8------8------8--)
D-----------------------)-----------------------)-----------------------)
A--0--------------------)--0--------------------)-----------------------)
E-----------------------)-----------------------)--7--------------------)

E—-11-----8------7------)--7------5------3------)--3------2------0------)
B----7------7------7----)----0------0------0----)----0------0------0----|
G------8------8------8--)------0------0------0--)------0------0------0--)
D-----------------------)-----------------------)-----------------------)
A-----------------------)-----------------------)-----------------------)
E--7--------------------)--0--------------------)--0--------------------)

E--2------2------2------)--2------3------2------)--0------0------0------)
B----0------0------0----)----0------0------0----)----0------0------0----)
G------2------2------2--)------2------2------2--)------0------0------0--)
D-----------------------)--2--------------------)--2--------------------)
A--2--------------------)-----------------------)---------2-------------)
E-----------------------)-----------------------)----------------3------)

E-0=====================)-----------------------)
B-0=====================)----0-0----------------)
G-0=====================)-----------------------)
D-----------------------)-----------------------)
A-----------------------)-----------------------)
E-0=====================)-----------------------)

   
Part B 
              
E--4------4------4------)--4------2------0------)-----------------------)
B----0------0------0----)----0------0------0----)--5------4------4------)
G------1------1------1--)------1------1------1--)----2------2------2----)
D-----------------------)-----------------------)------4------4------4--)
A-----------------------)-----------------------)-----------------------)
E--0--------------------)--0--------------------)--2--------------------)

E-----------------------)--9------9------9------)--9------11-----9------)
B--4------2------4------)----7------7------7----)----7-------7-----7----)
G----2------2------2----)------8------8------8--)------8-------8-----8--)
D------4------4------4--)-----------------------)-----------------------)
A-----------------------)-----------------------)-----------------------)
E--2--------------------)--7--------------------)--7--------------------)

E--9------7------7------)--7------9------11-----)-12-----12-----12------)
B----9------9------9----)----9------9------9----)----9------9------9----)
G------9------9------9--)------9------9------9--)------9------9------9--)
D-----------------------)-----------------------)-----------------------)
A-----------------------)-----------------------)-----------------------)
E--0--------------------)--0--------------------)--0--------------------)

E-12-----11-----10------)--9------9------9------)--9------7------5------)
B----9------9------9----)----10-----10----10----)----5------5------5----)
G------9------9------9--)-------9------9-----9--)------6------6------6--)
D-----------------------)-----------------------)-----------------------)
A-----------------------)--0--------------------)--0--------------------)
E--0--------------------)-----------------------)-----------------------)

E--4------4------4------)--4------5------2------)--0------0------0------)
B----5------5------5----)----4------4------4----)----0------0------0----)
G------4------4------4--)------2------2------2--)------1------1------1--)
D-----------------------)-----------------------)--2--------------------)
A-----------------------)-----------------------)---------2-------------)
E--0--------------------)--2--------------------)----------------4------)

E-0=====================)-----------------------)
B-0=====================)----------0-7----------)
G-1=====================)-----------------------)
D-----------------------)-----------------------)
A-----------------------)-----------------------)
E-0=====================)-----------------------)


E--7------7------7------)--7------5------3------)--3------2------0------)
B----0------0------0----)----0------0------0----)----0------0------0----)
G------0------0------0--)------0------0------0--)------0------0------0--)
D-----------------------)-----------------------)-----------------------)
A-----------------------)-----------------------)-----------------------)
E--0--------------------)--0--------------------)--0--------------------)

E—-0------3------7------)--12-----12-----12-----)--12-----10-----8------)
B----0------0------0----)----0------0------0----)----0-------0-----0----)
G------0------0------0--)------0------0------0--)------0-------0-----0--)
D-----------------------)-----------------------)-----------------------)
A-----------------------)-----------------------)-----------------------)
E--0--------------------)--0--------------------)--0--------------------)
  
E--8------7------5------)--5------7------8------)--7------8------7------)
B----5------5------5----)----5------5------5----)----7------7------7----)
G------5------5------5--)------5------5------5--)------8------8------8--)
D-----------------------)-----------------------)-----------------------)
A--0--------------------)--0--------------------)-----------------------)
E-----------------------)-----------------------)--7--------------------)

E—-11----8------7-------)--7------5------3------)--3------2------0------)
B----7------7------7----)----0------0------0----)----0------0------0----)
G------8------8------8--)------0------0------0--)------0------0------0--)
D-----------------------)-----------------------)-----------------------)
A-----------------------)-----------------------)-----------------------)
E--7--------------------)--0--------------------)--0--------------------)

E--2------2------2------)--2------3------2------)--0------0------0------)
B----0------1------1----)----0------0------0----)----0------0------0----)
G------2------2------2--)------2------2------2--)------0------0------0--)
D-----------------------)--2--------------------)--2--------------------)
A--2--------------------)-----------------------)---------2-------------)
E-----------------------)-----------------------)----------------3------)

E-0=====================)
B-0=====================)
G-0=====================)
D-----------------------)
A-----------------------)
E-0=====================)
Добавлено: 16.05.2012
Другие материалы по этой песне:
  • Аккорды и текст

Страница создана 16.05.2012
http://primanota.ru/richard-clayderman/romance-chords.htm
Привет, Гость.
Предлагаем пройти революционный курс по гитаре.
Подарок от PrimaNota.Ru, забирай!