PrimaNota.ru - самый крупный в мире бесплатный архив песенных текстов, аккордов, табулатур и нот


Rich Robinson - One Road Hill - таба, видео

Регистрация Запомнить меня
Войти через:  Facebook Google Twitter Vk Yandex Mail.ru

Rich Robinson - One Road Hill - таба, видео

Печатать
Просмотров: 36
-------------------------------------------------------------------------------
                             ONE ROAD HILL - Rich Robinson
-------------------------------------------------------------------------------
Tabbed by:Will West
E-mail:jwwest40@gmail.com

Tuning:DADGBD Double Drop D

Sorry I couldn't add more of the song. Please send feedback on how I can make this better.

http://youtu.be/cgAicjY7ppE 

D|------------------------------------0---------------------------------------|
B|------------------------------------0---------------------------------------|
G|----7-------9----4--------5---------0---------------------------------------|
D|----7-x12---9----4--x12---5--x12----0--x5-----------------------------------|
A|------------------------------------0---------------------------------------|
D|----7-------9----4--------5---------0---------------------------------------|

D|---------------------------------------------------------------------------|
B|---------------------------------------------------------------------------|
G|---------------------------------------------------------------------------|
D|---0h2/444\2p0----4/7\4 444/7\2 222/4\2p0----------------------------------|
A|-------------------------------------------2p0-2p0-------------------------|
D|------------------------------------------------------3b-0-----------------|






************************************

| /   slide up
| \   slide down
| h   hammer-on
| p   pull-off
| ~   vibrato
| +   harmonic
| x   Mute note
| b   Bend
| pb  Pre-bend
| br  Bend release
| pbr Pre-bend release
| brb Bend release bend

************************************
Добавлено: 23.09.2014
Другие материалы по этой песне:
  • Аккорды и текст

Страница создана 23.09.2014
http://primanota.ru/rich-robinson/one-road-hill-chords.htm
Привет, Гость.
Предлагаем пройти революционный курс по гитаре.
Подарок от PrimaNota.Ru, забирай!