PrimaNota.ru - самый крупный в мире бесплатный архив песенных текстов, аккордов, табулатур и нот


Ricardo Arjona - Duerme - таба, видео

Регистрация Запомнить меня
Войти через:  Facebook Google Twitter Vk Yandex Mail.ru

Ricardo Arjona - Duerme - таба, видео

Печатать
Просмотров: 91
Intro:

1. --------0-2-0---2--------------------0h2-0--------------------|
2. ------3-------3-----3-5-3---3------3-------2---2—3h5p3-3------|
3. ----2---------------------4------2-----------3-----------2----|
4. --0----------------------------0------------------------------|
5. --------------------------------------------------------------|
6. --------------------------------------------------------------|

F                   C
Tus labios entre abiertos,
G               F            C
con un leve zumbido al respirar,
Am                   F
tu cara sin gestos, tus pechos pretestos,
C               G      C
de una posible maternidad,
G                  C
toda tu dormida alli,
F                   C             G            C
despues de la estampida, de dos cuerpos y el amor.


1. ----------------3h5-3----------0-2-0--------------------------------|
2. ----3-5-5/7-5-3------7-5-----3-------3-7-5-3-0---3-3----------------|
3. --2------------------------2-------------------2-------7-9-7---7----|
4. -------------------------------------------------------------7------|
5. --------------------------------------------------------------------|
6. --------------------------------------------------------------------|

F                        C
Tu vientre haciendo un hueco,
G                    F               C
para guardar mis pistilos de agua y luz,
Am                      F
tus pies descubiertos, tus brazos abiertos,
C                  G             C
tu ombligo, el universo todo en ti,
G                  C
y yo me fumo tu aliento,
F                C              G            C
despues de la batalla, de dos cuerpos y el amor.

(En la cancion se toca con violines)

1. ----------------3h5-3----------0-2-0--------------------------------|
2. ----3-5-5/7-5-3------7-5-----3-------3-7-5-3-0---3-3----------------|
3. --2------------------------2-------------------2-------7-9-7---7----|
4. -------------------------------------------------------------7------|
5. --------------------------------------------------------------------|
6. --------------------------------------------------------------------|

F                C              G
En tus uñas hay rastros de mi piel,
1. -----------------|
2. ------7-5--------|
3. –3-7h9----5-9----|
4. -----------------|
5. -----------------|
6. -----------------|
F                 G               C
y en mi piel hay sudor del compartido,
1. ----------5-7---|
2. -5-10-7p5-------|
3. ----------------|
4. ----------------|
5. ----------------|
6. ----------------|
F            C              G
el sudor de sal que sabe a miel,
1. -------5----------|
2. -7p5-7---7-5-7----|
3. ------------------|
4. ------------------|
5. ------------------|
6. ------------------|
C                 F                G
son tus manos arañando en lo prohibido.


CORO:
C      G     C
Duerme, duerme,
F          G              C
que yo no se si estoy soñando,
F            C             F
se vino el cielo a este lugar,
G            F              G
mientras tu cuerpo aun temblando.
C      G     C
Duerme, duerme,
F                 G            C
que sere el centinela de tus sueños,
F                  C        F
que no hallaras alli uno mejor,
G             F           G   C
que del que acabo de ser dueño.

Solo: (Con distorcion)

1. ----------------3h5-3----------0-2-0--------------------------------|
2. ----3-5-5/7-5-3------7-5-----3-------3-7-5-3-0---3-3----------------|
3. --2------------------------2-------------------2-------7-9-7---7----|
4. -------------------------------------------------------------7------|
5. --------------------------------------------------------------------|
6. --------------------------------------------------------------------|

F             C
Tu pelo derramado,
G               F            C
llenando de azabache mi colchon,
Am                  F
tus uñas pintadas, tus piernas cerradas,
C                   G                C
tus pliegues en perfecto claro obscuro,
G                  C
y yo creo mas en Dios,
F                 C             G            C
despues de la fortuna, de dos cuerpos y el amor.

1. ----------------3h5-3---3-----------------|
2. ----3-5-5/7-5-3-------7----7-3-5-7-5------|
3. --2---------------------------------------|
4. ------------------------------------------|
5. ------------------------------------------|
6. ------------------------------------------|

F                     C             G
Y tu que aun no te enteras que te amo,
1. -----------------|
2. ------7-5--------|
3. –3-7h9----5-9----|
4. -----------------|
5. -----------------|
6. -----------------|
F                          G            C
porque no entiendes el lenguaje de mis manos,
1. ----------5-7---|
2. -5-10-7p5-------|
3. ----------------|
4. ----------------|
5. ----------------|
6. ----------------|
F             C              G
mañana al despertad yo te dire,
1. -------5----------|
2. -7p5-7---7-5-7----|
3. ------------------|
4. ------------------|
5. ------------------|
6. ------------------|
C                         G        F
lo que este tiempo por cobarde me calle.

C      G     C
Duerme, duerme,
F          G              C
que yo no se si estoy soñando,
F            C             F
se vino el cielo a este lugar,
G            F              G
mientras tu cuerpo aun temblando.
C      G     C
Duerme, duerme,
F                 G            C
que sere el centinela de tus sueños,
F                  C        F
que no hallaras alli uno mejor,
G             F           G   C
que del que acabo de ser dueño.

1. ----------------3h5-3----------0-2-0--------------------------------|
2. ----3-5-5/7-5-3------7-5-----3-------3-7-5-3-0---3-3----------------|
3. --2------------------------2-------------------2-------7-9-7---7----|
4. -------------------------------------------------------------7------|
5. --------------------------------------------------------------------|
6. --------------------------------------------------------------------|

Ahora con distorcion:

1. ----------------3h5-3----------0-2-0--------------------------------|
2. ----3-5-5/7-5-3------7-5-----3-------3-7-5-3-0---3-3----------------|
3. --2------------------------2-------------------2-------7-9-7---7----|
4. -------------------------------------------------------------7------|
5. --------------------------------------------------------------------|
6. --------------------------------------------------------------------|....X4 (Fade out)
Добавлено: 04.05.2012
Другие материалы по этой песне:

Страница создана 07.03.2012
http://primanota.ru/ricardo-arjona/duerme-chords.htm
Привет, Гость.
Предлагаем пройти революционный курс по гитаре.
Подарок от PrimaNota.Ru, забирай!