PrimaNota.ru - самый крупный в мире бесплатный архив песенных текстов, аккордов, табулатур и нот


Ribelli - Chi Mi Aiutera' - аккорды и текст, видео

Регистрация Запомнить меня
Войти через:  Facebook Google Twitter Vk Yandex Mail.ru

Ribelli - Chi Mi Aiutera' - аккорды и текст, видео

Печатать
Просмотров: 69
Chi Mi Aiutera'
Ribelli
		   --------


hey giò novembre 1999

Chi mi aiuterà / i ribelli (holland-dozier-holland--ricky gianco)
cover di "you keep me hanging on"/diana ross e the supremes
                                 / vanilla fudge

introduzione chitarra con distorsore

                               arpeggio
                mi-re si-   do mi-     re      si-
|-------------------------------------------------------|
|-------------------------------------------------------|
|-------------------------------------------------------|
|-----4-2-0-----9--7--4-----5------------------4-4-4-4--|
|-7-5-------2---7--5--2-0-2-3--7-7-7-7-5-5-5-5--5-5-5-5-|
|-------------------------------7-7-7-7-5-5-5-5---------|

do
|---------|
|---------|
|---------|
|2-2-2-2--|
|-3-3-3-3-|
|---------|


  mi-
|------------------------|
|------------------------|
|------------------------|
|-2-2---2-2--2-2-2-2-2-9-|
|------------------------|
|------------------------|

mi-          re         si-                   do
È mattino ma non ci sei c'è un gran silenzio attorno a me

mi-        re                si-         do
Io sono da solo non so (coro)CHI MI AIUTERA'

mi-               re        si-               do
Oggi il tempo non passa più c'è il sole ma fa freddo sai

mi-        re         si-         do
E sento morire (coro)CHI MI AIUTERA'

F                            do           sol
È stato quasi un gioco per me adesso io lo so

F                         do
forse troppo tardi però io corro come un pazzo

      Mi+
Cerco solo te    io non so più cosa fare

  mi-
|-------------------------------------------------|
|-------------------------------------------------|
|-------------------------------------------------|
|-2-2---2-2--2-2-2-2-2----2-2---2-2--2-2-2-2-2--9-|
|-------------------------------------------------|
|-------------------------------------------------|


                             mi-           re
Ti amo da impazzire   (coro) È GIA'SERA MA NON CI SEI

                            Bm                 do
Torna da me          (coro) C'E'TRISTEZZA NEGLI OCCHI MIEI

mi-         re                     si-         do
Ho perso l'amore     (coro) NON SO CHI MI AIUTERA'

mi-                    re
C'è un gran silenzio attorno a me

Bm                    do
C'è la tristezza negli occhi miei

mi-                  re
È un altro giorno ma non ci sei

mi-                  re
È un altro giorno ma non ci sei

mi-                  re
È un altro giorno ma non ci sei

mi-               re
Il tempo passa ma non ci sei

  mi-
|---------------------------------------------|
|---------------------------------------------|
|---------------------------------------------|
|-2-2---2-2--2-2-2-2-2--2-2---2-2--2-2-2-2-2--|
|---------------------------------------------|
|---------------------------------------------|

|-------------------------|
|-------------------------|
|-------------------------|
|-2-2---2-2--2-2-2-2-2--9-|
|-------------------------|
|-------------------------|

Ripetere introduzione poi fine. Grandi ribelli.


gdegortes@tiscalinet.it




     
Добавлено: 05.09.2013
Другие материалы по этой песне:
  • Аккорды и текст

Страница создана 05.09.2013
http://primanota.ru/ribelli/chi-mi-aiutera-chords.htm
Привет, Гость.
Предлагаем пройти революционный курс по гитаре.
Подарок от PrimaNota.Ru, забирай!