PrimaNota.ru - самый крупный в мире бесплатный архив песенных текстов, аккордов, табулатур и нот


Rhye - The Fall - аккорды и текст, видео

Регистрация Запомнить меня
Войти через:  Facebook Google Twitter Vk Yandex Mail.ru

Rhye - The Fall - аккорды и текст, видео

Печатать
Просмотров: 122
Уроки эстрадного вокала в Санкт-Петербурге
The Fall
Rhye
Tuning: Standard, Capo 3rd


STRUMMING PATTERN:

  Em7                          2x   D/F#                       
e|--------------------------------|--------------------------------|-0---0-x---0--------------------|
b|-----3---x-3-----3-----3-x---3--|-----3---x-3-----3-----3-x---3--|-3---3-x---3-----3-----3-x---3--|
g|-----0---x-0-----0-----0-x---0--|-----2---x-2-----2-----2-x---2--|-2---2-x---2-----2-----2-x---2--|
d|-----2---x-2-----2-----2-x---2--|-----0---x-0-----0-----0-x---0--|-----------------0-----0-x---0--|
a|--------------------------------|--------------------------------|--------------------------------|
e|-0---------------0--------------|-2---------------2--------------|-2---------------2--------------|

   1   +   2   +   3   +   4   +    1   +   2   +   3   +   4   +



Intro: Em7   D/F#                

               Em7        D/F#               
Make love to me. One more time, 
              Em7
before you go away 
              D/F#
Why can't you stay?

Em7     D/F#                 Em7        
Ooh, my love. Come home to me
            D/F#
Just for a while
                  Em7
I'll leave this piece in you 
              D/F#
Why can't you stay?

          Em7
Don't run away
           D/F#
Don't slip away, my dear
          Em7
Don't run away
           D/F#
Don't slip away, my dear
          Em7
Don't run away 
(Don't ruin this heart of mine)

Em7
The sun is gone
                 D/F#
It fell into the fall 
                         Em7
But I don't want it this way 
              D/F#
Why can't you stay? 

          Em7
Don't run away
           D/F#
Don't slip away, my dear
          Em7
Don't run away
           D/F#
Don't slip away, my dear
          Em7
Don't run away 
(Don't ruin this heart of mine)
Oh oh

  D                           2x   C#m                        2x
e|--------------------------------|--------------------------------|
b|-----2---x-2-----2-----2-x---2--|-----6---x-5-----5-----5-x---5--|
g|-----2---x-2-----2-----2-x---2--|-----6---x-6-----6-----6-x---6--|
d|-----4---x-4-----4-----4-x---4--|-----6---x-6-----6-----6-x---6--|
a|-5---------------5--------------|-4---------------4--------------|
e|--------------------------------|--------------------------------|

   1   +   2   +   3   +   4   +    1   +   2   +   3   +   4   +

There should be words
There should be words that explain the way 
But I am tongue tied and twisted,
                     B
Where's those words...

          Em7
Don't run away
           D/F#
Don't slip away, my dear
          Em7
Don't run away
           D/F#
Don't slip away, my dear
          Em7
Don't run away 
Добавлено: 11.06.2016
Другие материалы по этой песне:
  • Аккорды и текст

Страница создана 11.06.2016
http://primanota.ru/rhye/fall-chords.htm
Привет, Гость.
Предлагаем пройти революционный курс по гитаре.
Подарок от PrimaNota.Ru, забирай!