PrimaNota.ru - самый крупный в мире бесплатный архив песенных текстов, аккордов, табулатур и нот


Rhoads Stefan - Once Upon A Time - таба, видео

Регистрация Запомнить меня
Войти через:  Facebook Google Twitter Vk Yandex Mail.ru

Rhoads Stefan - Once Upon A Time - таба, видео

Печатать
Просмотров: 65
This one is called "Once Upon A Time"
tabbed and written by Stefan Rhoads
standard tunning just down strokes
its kinda a slow song great for making someone smile

part A
e|--------------------------------------------------------|
B|--------------------------------------------------------|
G|--6-6-6-6-6-6--4-4-4-4-4-4--2-2-2-2-2-2--4-4-4-4-4-4-4-4|
D|--7-7-7-7-7-7--5-5-5-5-5-5--3-3-3-3-3-3--5-5-5-5-5-5-5-5|  x2
A|--------------------------------------------------------|
E|--------------------------------------------------------|
part B
e|--------------------------------------------------------|
B|--5-5-5-5-5-5--3-3-3-3-3-3--1-1-1-1-1-1--3-3-3-3-3-3-3-3|
G|--6-6-6-6-6-6--4-4-4-4-4-4--2-2-2-2-2-2--4-4-4-4-4-4-4-4|
D|--------------------------------------------------------|  x2
A|--------------------------------------------------------|
E|--------------------------------------------------------|

Play part A again

part C
e|--5-5-5-5-5-5--3-3-3-3-3-3--1-1-1-1-1-1--3-3-3-3-3-3-3-3|
B|--5-5-5-5-5-5--3-3-3-3-3-3--1-1-1-1-1-1--3-3-3-3-3-3-3-3|
G|--6-6-6-6-6-6--4-4-4-4-4-4--2-2-2-2-2-2--4-4-4-4-4-4-4-4|
D|--7-7-7-7-7-7--5-5-5-5-5-5--3-3-3-3-3-3--5-5-5-5-5-5-5-5|  x2
A|--5-5-5-5-5-5--3-3-3-3-3-3--1-1-1-1-1-1--3-3-3-3-3-3-3-3|
E|--5-5-5-5-5-5--3-3-3-3-3-3--1-1-1-1-1-1--3-3-3-3-3-3-3-3|

yeah i know simple but look at most other songs....
again you want to get a hold of me
mdonebellsouth@hotmail.com



     
Добавлено: 23.09.2013
Другие материалы по этой песне:
  • Аккорды и текст

Страница создана 23.09.2013
http://primanota.ru/rhoads-stefan/once-upon-a-time-chords.htm
Привет, Гость.
Предлагаем пройти революционный курс по гитаре.
Подарок от PrimaNota.Ru, забирай!