PrimaNota.ru - самый крупный в мире бесплатный архив песенных текстов, аккордов, табулатур и нот


Rhoads Stefan - Forever Version 2 - таба, видео

Регистрация Запомнить меня
Войти через:  Facebook Google Twitter Vk Yandex Mail.ru

Rhoads Stefan - Forever Version 2 - таба, видео

Печатать
Просмотров: 55
forever verison 2
by stefan rhoads
tabbed by him
Intro.
(A) (B) (C)
e |---0-----0-----|   |---0-----0-----|   |---0-----0-----|
B |--0--0--0--0--0|x2 |--0--0--0--0--0|x2 |--0--0--0--0--0|x2
G |-4-----4-----4-|   |-0-----0-----0-|   |-2-----2-----2-|
play (B) again
(D) (E)
e |---0-----0-----|   |---0-----0-----|
B |--0--0--0--0--0|   |--0--0--0--0--0|
G |---------------|x2 |---------------|x2
D |-4-----4-----4-|   |-2-----2-----2-|
play (C), (B), (D) & (E) again
(F)
e |----0-----0-----|
B |---0--0--0--0--0|
G |----------------|x2
D |--0-----0-----0-|
at the end of (F) add a
D |--2--|hold this note for about four counts
one
e |----0-----0---2---2---3---3---2---2---0---0---2---2---3---3---2---2-|
B |---0--0-----0---0---0---0---0---0---0---0---0---0---0---0---0---0---|
G |--------------------------------------------------------------------|
D |--2-----2-----0---0-------------------2---2---0---0-----------------|
A |----------------------3---3---2---2-------------------3---3---2---2-|
E |--------------------------------------------------------------------|
two
e |------------------------------------------------------------------|
B |--0---0---2---2---3---3---2---2---0---0---2---2---3---3---2---2---|
G |----0---0---0---0---0---0---0---0---0---0---0---0---0---0---0---0-|
D |------------------------------------------------------------------|
A |--2---2---0---0-------------------2---2---0---0-------------------|
E |------------------3---3---2---2-------------------3---3---2---2---|
then you go back to one and speed it up to insted of four/four time 2/3
time
I.E
e|--0-0-0-0--2-2-2-2--3-3-3-3---2-2-2-2--------------------------|
B|---0-0-0-0--0-0-0-0--0-0-0-0---0-0-0-0-------------------------|
G|---------------------------------------------------------------|
D|--2-2-2-2--0-0-0-0---------------------------------------------|
A|--------------------3-3-3-3---2-2-2-2--------------------------|
E|---------------------------------------------------------------|
do that twice and the do the same thing to "two"
when you play it you should be able to pick out a count of (for me its)
"one, two, three, and, four, and."
sorry its not done ive only been play guitar for about a year now
as for the ending im still writting that along with some words
any suggestions email me at
mdonebellsouth@hotmail.com
Stefan Rhoads
     
Добавлено: 08.10.2013
Вам также может быть интересно:
Другие материалы по этой песне:
  • Аккорды и текст

Страница создана 13.08.2013
http://primanota.ru/rhoads-stefan/forever-version-2-chords.htm
Привет, Гость.
Предлагаем пройти революционный курс по гитаре.
Подарок от PrimaNota.Ru, забирай!