PrimaNota.ru - самый крупный в мире бесплатный архив песенных текстов, аккордов, табулатур и нот


Rhoads Stefan - Forever - таба, видео

Регистрация Запомнить меня
Войти через:  Facebook Google Twitter Vk Yandex Mail.ru

Rhoads Stefan - Forever - таба, видео

Печатать
Просмотров: 84
forever

by stefan rhoads

tabbed by him 

Intro.

e |----0-----0-----0-----0-----0-----0-----0-----0-----0-----0---|

B |------2-----2-----0-----0-----0-----0-----0-----0-----0-----0-|

G |--4-----4-----0-----0-----2-----2-----0-----------------------|

D |--------------------------------------------4-----4-----2-----|

A |--------------------------------------------------------------|

E |--------------------------------------------------------------|

 

e |----0-----0-----0-----0-----0-----0-----0-----0-----0-----0---|

B |------0-----0-----0-----0-----0-----0-----0-----0-----0-----0-|

G |--------2-----2-----0-----0-----------------------------------|

D |--2-----------------------------4-----4-----2-----2-----0-----|

A |--------------------------------------------------------------|

E |--------------------------------------------------------------|

e |----0-----0----|

B |------0-----0--|

G |---------------|

D |--4-----4-----2| hold this note for about four counts

A |---------------|

E |---------------|

one

 

e |--0---0---2---2---3---3---2---2---0---0---2---2---3---3---2---2-|

B |----0---0---0---0---0---0---0---0---0---0---0---0---0---0---0---|

G |----------------------------------------------------------------|

D |--2---2---0---0-------------------2---2---0---0-----------------|

A |------------------3---3---2---2-------------------3---3---2---2-|

E |----------------------------------------------------------------|

two

e |------------------------------------------------------------------|

B |--0---0---2---2---3---3---2---2---0---0---2---2---3---3---2---2---|

G |----0---0---0---0---0---0---0---0---0---0---0---0---0---0---0---0-|

D |------------------------------------------------------------------|

A |--2---2---0---0-------------------2---2---0---0-------------------|

E |------------------3---3---2---2-------------------3---3---2---2---|

then you go back to one and speed it up to insted of four/four time 2/3
time

I.E

e|--0-0-0-0--2-2-2-2--3-3-3-3---2-2-2-2--------------------------|

B|---0-0-0-0--0-0-0-0--0-0-0-0---0-0-0-0-------------------------|

G|---------------------------------------------------------------|

D|--2-2-2-2--0-0-0-0---------------------------------------------|

A|--------------------3-3-3-3---2-2-2-2--------------------------|

E|---------------------------------------------------------------|

do that twice and the do the same thing to "two"

when you play it you should be able to pick out a count of (for me its)

"one, two, three, and, four, and."

 

 

sorry its not done ive only been play guitar for about a year now

as for the ending im still writting that along with some words

any suggestions email me at

mdonebellsouth@hotmail.com

 

Stefan Rhoads
     
Добавлено: 13.07.2013
Другие материалы по этой песне:
  • Аккорды и текст

Страница создана 13.07.2013
http://primanota.ru/rhoads-stefan/forever-chords.htm
Привет, Гость.
Предлагаем пройти революционный курс по гитаре.
Подарок от PrimaNota.Ru, забирай!